Really Sex, Los Daniels (tablatura)

Autor: Anónimo | 30865 visualizaciones



*Saludos a todos los adeptos de Los Daniels, aquí de regreso con una
 colaboración del primer sencillo Really Sex del disco Mooddanza;
 están un poco complicados los arreglos puesto que usan muchos
 vibratos pero practicando y escuchando la canción no creo que tengan
 mayor problema. Si alguien quiere que suba el video a youtube me
 mandan un correo para hacerlo.
*Pronto iré subiendo las demás transcripciones. Comenzamos...



Tengan en cuenta los vibratos (~) marcados en todas las tabs porque se
confunden con los guiones (-), se los marco en la nota que deben ir y
también arriba del hexagrama para que los puedan notar.

        ~        ~      ~      ~       ~        ~        ~
E|-7--------------------------------------------------7-7~-6-7-------|
A|---7-7~-9-10-10~----------9-9~--5-7-7~-9-10-10~-9-9-----------10-9-|
D|-----------------7-9-9~-7------------------------------------------|
G|-------------------------------------------------------------------|
B|-------------------------------------------------------------------|
e|-------------------------------------------------------------------|

        ~        ~      ~      ~       ~        ~        ~
E|-7--------------------------------------------------7-7~-6-7-------|
A|---7-7~-9-10-10~----------9-9~--5-7-7~-9-10-10~-9-9----------------|
D|-----------------7-9-9~-7------------------------------------------|
G|-------------------------------------------------------------------|
B|-------------------------------------------------------------------|
e|-------------------------------------------------------------------|

        ~        ~      ~      ~       ~        ~        ~
E|-7--------------------------------------------------7-7~-6-7-------|
A|---7-7~-9-10-10~----------9-9~--5-7-7~-9-10-10~-9-9----------10-9-7|
D|-----------------7-9-9~-7------------------------------------------|
G|-------------------------------------------------------------------|
B|-------------------------------------------------------------------|
e|-------------------------------------------------------------------|


Em                              G
Siempre que mi cabeza sueña con tu presencia
B               Em
vuelves tú a mi cama, mi linda dama
            G            B         Em
sólo es pensar en tu cuerpo monumental.

        ~        ~      ~      ~
E|-7----------------------------------|
A|---7-7~-9-10-10~----------9-9~------|
D|-----------------7-9-9~-7-----------|
G|------------------------------------|
B|------------------------------------|
e|------------------------------------|


  G
Siempre en tus labios
B
I really really really really sex ohh!!
  G
siempre en tu cuerpo
B
I really really really sex uohh!!.

        ~        ~      ~      ~       ~        ~        ~
E|-7--------------------------------------------------7-7~-6-7-------|
A|---7-7~-9-10-10~----------9-9~--5-7-7~-9-10-10~-9-9----------10-9-7|
D|-----------------7-9-9~-7------------------------------------------|
G|-------------------------------------------------------------------|
B|-------------------------------------------------------------------|
e|-------------------------------------------------------------------|


Em
Siempre que mi cabeza
             G          B
se embriaga con olor de tu perfume
Em                          G
loca, loca se pone, ese erotismo
          B
tuyo a ella le impone.


  G
Siempre en tus labios
B
I really really really really sex ohh!!
  G
siempre en tu cuerpo
B
I really really really sex uohh!!.


  G
Siempre en tus labios
B
I really really sex uohh!!
  G
siempre pensando,
            C
siempre pensando
           G    B   Em
en tu cuerpo monumental.

     ~    ~   ~   ~   ~   ~   ~    ~   ~   ~   ~   ~   ~
E|-------------------------------------------------------------------|
A|-------------------------------------------------------------------|
D|-------------------------------------------------------------------|
G|-------------------------------------------------------------------|
B|-------------------------------------------------------------------|
e|-12~--15~-14~-15~-14~-15~-14~--17~-15~-17~-15~-17~-15~-------------|


     ~   ~   ~   ~   ~   ~    ~     ~      ~      ~
E|-------------------------------------------------------------------|
A|-------------------------------------------------------------------|
D|-------------------------------------------------------------------|
G|-------------------------------------------------------------------|
B|-------------------------------------------------------------------|
e|-15~-14~-15~-14~-15~-14~--12~---15~-14-15~-14-15~14----------------|

E|-------------------------------------------------------------------|
A|-------------------------------------------------------------------|
D|-------------------------------------------------------------------|
G|---------------------------------------------------11--------------|
B|-12-13-12-10-12-13-12-10-12-13-12-10-12-13-12-10-8-----------------|
e|-------------------------------------------------------------------|

Em
Siempre será un secreto
               G
si asi ella lo ha querido
 B          Em
tú nunca sabrás

que te quiero más,
         G
te llevaré a la cama
  B
una vez más.


E|-------------------------------------------------------------------|
A|-------------------------------------------------------------------|
D|-------------------------------------------------------------------|
G|-9-8--7-6--5-4--5-4--3-4-------------------------------------------|
B|-------------------------------------------------------------------|
e|-------------------------------------------------------------------|


  G
Siempre en tus labios
B
I really really really really sex ohh!!
  G
siempre en tu cuerpo
B
I really really really sex uohh!!.


  G
Siempre en tus labios
B
I really really sex uohh!!
  G
siempre pensando,
            C
siempre pensando
           G    B   Em
en tu cuerpo monumental...


® Cualquier duda o comentario a mi correo.
® Rhadex.





Calificar esta versión:
Aviso: Este fichero es trabajo propio de su transcriptor y representa su interpretación personal de la canción. El material contenido en esta página es para exclusivo uso privado, por lo que se prohibe su reproducción o retransmisión, así como su uso para fines comerciales.
Más versiones de Really Sex, Los Daniels
Really Sex
tablatura
Really Sex (ver 2)
tablatura
Descubre más canciones de Los Daniels