Avanti Morocha, Los Caballeros De La Quema (tablatura)

Autor: Anónimo | 22369 visualizaciones

INTRO
e--------------------------------------------------------+ X3
B-------3-------3---3---3--------3---3-------------------+
G---2h4----4--2---2---0---0--0h2---2---------------------+ 
D--------------------------------------------------------+ 
A--------------------------------------------------------+
E--------------------------------------------------------+

e--------------------------------------------------------+
B-------3-------3----------------------------------------+
G---2h4----4--2-------2-------0--------------------------+ 
D--------------------------------------------------------+ 
A--------------------------------------------------------+
E--------------------------------------------------------+

SOLO
e--3h5-5-7-8-9-10----------------------------------------+
B-----------------12-12----12-10------10-10--------------+
G--------------------------------12-9-------12-11h12-----+
D--------------------------------------------------------+
A--------------------------------------------------------+
E--------------------------------------------------------+

e--------------------------------------------------------+
B--8-----------------------------------------------------+
G----9-7---7---------------------------------------------+
D--------9---9-7------------------7-9-7-------------9----+
A----------------10-----9h10-7-10-------10--7-10-10---10-+
E--------------------------------------------------------+

FIN

Fuente original: LaCuerda
Colaborador original: Mauro Hernandez [mauroeh@starmedia.com]
Calificar esta versión:
Aviso: Este fichero es trabajo propio de su transcriptor y representa su interpretación personal de la canción. El material contenido en esta página es para exclusivo uso privado, por lo que se prohibe su reproducción o retransmisión, así como su uso para fines comerciales.
Más versiones de Avanti Morocha, Los Caballeros De La Quema
Avanti Morocha
acordes
Avanti Morocha (ver 2)
acordes
Avanti Morocha
tablatura
Avanti Morocha (ver 2)
tablatura
Avanti Morocha
armonica
Descubre más canciones de Los Caballeros De La Quema