Avanti Morocha, Los Caballeros De La Quema (tablatura) (ver 2)

Autor: totototo | 26815 visualizaciones

hola aca  les muestro como tocar avanti morocha esta cancion se puede tocar con cualquier cuerda 
pero en la segunda cuerda se toca con un casillero diferente ahora les enseñare

esta es la que se puede tocar con cualquiera exepto segunda cuerda

----7-7-5-4-2-4---------4-4-5-7-7------------
---------------------------------7-----------
---------------------------------------------
---------------------------------------------
---------------------------------------------
---------------------------------------------

y con la segunda cuerda es asi


----7-7-5-4-2-4---------4-4-5-7-7------------
---------------------------------6-----------
---------------------------------------------
---------------------------------------------
---------------------------------------------
---------------------------------------------


bueno asi es agreguenme toto10_06@hotmail.com

de nada

Comentarios del colaborador: chau

Calificar esta versión:
Aviso: Este fichero es trabajo propio de su transcriptor y representa su interpretación personal de la canción. El material contenido en esta página es para exclusivo uso privado, por lo que se prohibe su reproducción o retransmisión, así como su uso para fines comerciales.
Más versiones de Avanti Morocha, Los Caballeros De La Quema
Avanti Morocha
acordes
Avanti Morocha (ver 2)
acordes
Avanti Morocha
tablatura
Avanti Morocha (ver 2)
tablatura
Avanti Morocha
armonica
Descubre más canciones de Los Caballeros De La Quema