No Me Hables De Sufrir, Los Bunkers (tablatura)

Autor: Anonimo | 29183 visualizaciones

Intro: x 2

  
1|-----------------------------|
2|-----------------------------|
3|---99/77/5555/44-------------|
4|---77/55/3333/22-------------|
5|-----------------------------|
6|-----------------------------|

----------------------------------------------
ahora la cancion!


(verso 1)

ella tiene más de una razón.........
1|-----------------------------|
2|-----------------------------|
3|---99/77/5555/44-------------|
4|---77/55/3333/22-------------|
5|-----------------------------|
6|-----------------------------|


para pedir perdón .....
1|-----------------------------|
2|-----------------------------|
3|-----------------------------|
4|--77/66/555/44---------------|
5|--55/44/333/22---------------|
6|-----------------------------|


a mi corazón.....
1|-----------------------------|(estoy suponiendo q son 4 veces
2|-----------------------------|pero cuando ustedes la toquen
3|--------------9999-----------|veran cuantas veces son)       
4|--5555--------9999-----------|
5|--5555--------7777-----------|
6|--3333-----------------------|     

(despues viene lo mismo 
pero con la otra letra)


(ahora esta parte
se toca con rasgueo)


(precoro)

rem         mim
Me robó la vida

rem           mim
la dejó escondida

rem            mim
me quitó el aliento

rem        mim               
aún así no me pidió perdón


(intro x1)

        

no me pidió perdón...
1|-----------------------------|
2|-----------------------------|
3|---99/77/5555/44-------------|
4|---77/55/3333/22-------------|
5|-----------------------------|
6|-----------------------------|


(verso 3)

En su almohada me cortó el amor....
1|-----------------------------|
2|-----------------------------|
3|---99/77/5555/44-------------|
4|---77/55/3333/22-------------|
5|-----------------------------|
6|-----------------------------|


pero partido en dos....
1|-----------------------------|
2|-----------------------------|
3|-----------------------------|
4|--77/66/555/44---------------|
5|--55/44/333/22---------------|
6|-----------------------------|




como si nada.....
1|-----------------------------|(estoy suponiendo q son 4 veces
2|-----------------------------|pero cuando ustedes la toquen
3|--------------9999-----------|veran cuantas veces son) 
4|--5555--------9999-----------|
5|--5555--------7777-----------|
6|--3333-----------------------|     


(ahora esta parte
se toca con rasgueo)

(precoro)

rem         mim   
Embrujó mis ganas

rem           mim
más de una mañana

rem             mim   
me quitó el aliento

rem                    mim
y aún así no me pidió perdón.


(coro)
laM                   fam# 
Me dices que es muy tarde
                  reM
me dices que es mejor
               miM
parece que no sabes
                   laM    
lo que nos guarda el dolor
                fam#
mejor que no me hables
                  reM
no me hables de sufrir
                   miM
el tiempo es implacable
               
si se trata de ti....
1|-----------------------------|
2|-----------------------------|
3|---99/77/5555/44-------------|
4|---77/55/3333/22-------------|
5|-----------------------------|
6|-----------------------------|



(verso 4)

Ella usa la culpa a su favor...
1|-----------------------------|
2|-----------------------------|
3|---99/77/5555/44-------------|
4|---77/55/3333/22-------------|
5|-----------------------------|
6|-----------------------------|



mucho mejor que Dios....           
1|-----------------------------|
2|-----------------------------|
3|-----------------------------|
4|--77/66/555/44---------------|
5|--55/44/333/22---------------|
6|-----------------------------|



cero compasión....
1|-----------------------------|(estoy suponiendo q son 4 veces
2|-----------------------------|pero cuando ustedes la toquen
3|--------------9999-----------|veran cuantas veces son)  
4|--5555--------9999-----------|
5|--5555--------7777-----------|
6|--3333-----------------------|     

(precoro)

rem        mim 
Me robó la vida

rem           mim
la dejó escondida
rem           mim                 
y aún así no me pidió perdón.

 laM--fa#m--reM--miM  x1

laM                   fam#
Me dices que es muy tarde
                 reM
me dices que es mejor
               miM              
parece que no sabes
                    laM   
lo que nos guarda el dolor
                 fam#
mejor que no me hables
                  reM
no me hables de sufrir
                  miM
el tiempo es implacable
           
si se trata de ti....
1|-----------------------------|
2|-----------------------------|
3|---99/77/5555/44-------------|
4|---77/55/3333/22-------------|
5|-----------------------------|
6|-----------------------------|           

si se trata de ti....
1|-----------------------------|
2|-----------------------------|
3|---99/77/5555/44-------------|
4|---77/55/3333/22-------------|
5|-----------------------------|
6|-----------------------------|


1|-----------------------------|
2|-----------------------------|
3|---99/77/5555/44-------------|x2
4|---77/55/3333/22-------------|
5|-----------------------------|
6|-----------------------------|

fin

esta es mi primera tab q hago 
y no creo que este el 100

Fuente original: LaCuerda
Colaborador original: ignacio [nxo_666@hotmail.com]
Aviso: Este fichero es trabajo propio de su transcriptor y representa su interpretación personal de la canción. El material contenido en esta página es para exclusivo uso privado, por lo que se prohibe su reproducción o retransmisión, así como su uso para fines comerciales.

Comentarios en Facebook: