No Me Hables De Sufrir, Los Bunkers (bajo)

Autor: Anonimo | 36871 visualizaciones

Esta tablatura es de un tema muy bueno y suena bién.

Intro:
1)-------------------------------------------------- x2
2)--------------------------------------------------
3)--------------------------------------------------
4)-5-5-3-3-1-1-0-0-1-0------------------------------

Ella Tiene Más De Una Razón...
1)-------------------------------------------------- x2
2)--------------------------------------------------
3)--------------------------------------------------
4)-5-5-3-3-1-1-0-0-1-0------------------------------

1)--------------------------------------------------
2)--------------------------------------------------
3)-5-5-4-4-3-3-2-0-2-0------------------------------
4)---------------------3-3-3-3-0-0-0-1-3------------

Ella Usa La Culpa A Su Favor...
(Se Repite Lo Mismo) Hasta Esa Parte Donde Dice:

Me Robó la vida...
1)-------------------------------------------------- x4
2)--------------------------------------------------
3)-5-0-5-0-----2------------------------------------
4)---------0-0---0----------------------------------

1)-------------------------------------------------- x2
2)--------------------------------------------------
3)--------------------------------------------------
4)-5-5-3-3-1-1-0-0-1-0------------------------------

En Su...
(Es Iguál Que La Primera Estrofa)

Embrujó Mis Ganas Mas De Una Mañana...
1)-------------------------------------------------- x4
2)--------------------------------------------------
3)-5-0-5-0-----2------------------------------------
4)---------0-0---0----------------------------------

Coro:Me Dices Que Es Muy Tarde...
1)-------------------------------------------------- x2
2)--------------------------------------------------
3)-------------------------4-------4----------------
4)-5-0-5-0-5-0-5-0-5-0-2-2---2-2-2---2--------------

1)--------------------------------------------------
2)--------------------------------------------------
3)-5-3-5-3-5-3-5-3-5-3-7-5-7-5-7-5-7-5-7-5----------
4)--------------------------------------------------

(Solo De Guitarra)
1)-------------------------------------------------- x2
2)--------------------------------------------------
3)--------------------------------------------------
4)-5-5-3-3-1-1-0-0-1-0------------------------------

Ella Usa La Culpa A Su Favor...
1)-------------------------------------------------- x2
2)--------------------------------------------------
3)--------------------------------------------------
4)-5-5-3-3-1-1-0-0-1-0------------------------------

1)--------------------------------------------------
2)--------------------------------------------------
3)-5-5-4-4-3-3-2-0-2-0------------------------------
4)---------------------3-3-3-3-0-0-0-1-3------------

Me Robó la vida...
1)-------------------------------------------------- x3
2)--------------------------------------------------
3)-5-0-5-0-----2------------------------------------
4)---------0-0---0----------------------------------

(Solo De Teclado) (El Bajo Va Igual Que En El Coro)

Coro:Tu Me Dices Que Es Muy Tarde...
1)-------------------------------------------------- x2
2)--------------------------------------------------
3)-------------------------4-------4----------------
4)-5-0-5-0-5-0-5-0-5-0-2-2---2-2-2---2--------------

1)--------------------------------------------------
2)--------------------------------------------------
3)-5-3-5-3-5-3-5-3-5-3-7-5-7-5-7-5-7-5-7-5----------
4)--------------------------------------------------

Fin:Termina Igual Que El Intro Solo Que Un Poco Mas
    Largo
1)-------------------------------------------------- x4
2)--------------------------------------------------
3)--------------------------------------------------
4)-5-5-3-3-1-1-0-0-1-0------------------------------

Un Saludo Al Grupo Cygnus Y A Todos Sus Integrantes.

Fuente original: LaCuerda
Colaborador original: Francisco Escobar [fescobar69@latinmail.com]
Aviso: Este fichero es trabajo propio de su transcriptor y representa su interpretación personal de la canción. El material contenido en esta página es para exclusivo uso privado, por lo que se prohibe su reproducción o retransmisión, así como su uso para fines comerciales.

Comentarios en Facebook: