Miño, Los Bunkers (bajo) (ver 2)

Autor: Anonimo | 27549 visualizaciones

Los Bunkers.De Conce.

intro:

g----------------------------------
d----------------------------------      x2 Figura 1
a-3-3-3-03-33333-------------------
e------------------5-5-5-05-55555-

verso:

Fueron las canchas...............

g----------------------------------
d----------------------------------      x2 Figura 1
a-3-3-3-03-33333------------------
e------------------5-5-5-05-55555-

verso2:

El medio a la oscuridad......

g----------------------------------
d----------------------------------      x2 Figura 2
a-5-5-555--3-33-33-----------------
e-------------------3-3-3-03-33333-

verso:
Sentada sola y triste.....               x2 Figura 1

verso2:
Es evidente que el perdón............    x2 Figura 2

verso3:
Nadie me esperara............

g-----5----5-------------------------2--
d-3----4-------2---33333333-------222-2-  x1 Figura 3
a-----------3---------------0-023-------
e---------------------------------------

verso2:
Si fuese asi la eternidad.........
Figura 2 x1

Yo no quisiera despertar.

g-----------------------------
d-------------------4---------          x1 Figura 4
a-5-5-555-3-33-33-22-22 22-22-
e-----------------------------

coro:
Tatas caras que tengo que olvidar.....

g------------------------5---------------------7911----
d-----------2--------5-55-5---------------45-77--------   11=once
a-------2-22-2-33-77--------------33-23-55-------------
e-00-33---------------------3-3-33--3------------------

No hay palabras......................

g------------------------5--------------------------
d-----------2--------5-55-5-----------5-------------
a-------2-22-2-33-77--------------5-55-5-5555666666-
e-00-33---------------------33-77-------------------

Se rieron de ti................

g------------------------5-------------------------7--
d-----------2--------5-55-5-----------5--------7-77-7-   x2
a-------2-22-2-33-77--------------5-55-5-55-99--------
e-00-33---------------------33-77---------------------

g-9------
d-------- esta parte es para comenzar todo de nuevo.
a---3----
e----3---

Ahora viene todo de nuevo en la misma secuencia.
Eso es todo bajistas practiquen y que les suene bonito.
Cualquier duda escriban.

Saludos a todos mis amigos del Colegio Creación Concepción
en especial al Fito,Maicol,Oscar,Edo,Palillo y a mi Paulina.
Desde mi grupo.

Fuente original: LaCuerda
Colaborador original: Gatica [pablonxa_dsdbass@hotmail.com]
Aviso: Este fichero es trabajo propio de su transcriptor y representa su interpretación personal de la canción. El material contenido en esta página es para exclusivo uso privado, por lo que se prohibe su reproducción o retransmisión, así como su uso para fines comerciales.

Comentarios en Facebook: