Miño, Los Bunkers (acordes) (ver 4)

Autor: Anónimo | 35293 visualizaciones

bbcdemg
 Em                         C                   G
Tantas                 caras            que tengo olvid--ar
e|------------------|-------------------|---7---8-8-7--|-----------------------|
B|----7---8-8-7-----|---8---10-10--8----|-8---8------8-|---7---10-10-7-8-7-----|
G|--9---9-------9---|-9---9----------9--|--------------|-8---8-----------------|
D|------------------|-------------------|--------------|-----------------------|
A|------------------|-------------------|--------------|-----------------------|
E|------------------|-------------------|--------------|-----------------------|

Em                      C               G                   D
No hay pa------------labras             sin ponerse a gri--tar.
e|------------------|-------------------|---7---8-8-7----|-----------------------|
B|----7---8-8-7-----|---8---10-10--8----|-8---8------8---|---7-10--8--7----------|
G|--9---9-------9---|-9---9----------9--|----------------|-8-------8--8--10------|
D|------------------|-------------------|----------------|-----------------------|
A|------------------|-------------------|----------------|-----------------------|
E|------------------|-------------------|----------------|-----------------------|

Em                    C                   G                      D
Se rieron de ti      no pudiste dormir    pero tu propia     vergueza
e|------------------|-------------------|---7---8-8-7--------|-----------------------|
B|----7---8-8-7-----|---8---10-10--8----|-8---8------8-------|---7-10--8--7----------|
G|--9---9-------9---|-9---9----------9--|--------------------|-8-------8--8--10------|
D|------------------|-------------------|--------------------|-----------------------|
A|------------------|-------------------|--------------------|-----------------------|
E|------------------|-------------------|--------------------|-----------------------|

Em                   C                         G                       D
Ya no viven de ti    no supiste morir         por que tu propia triste--za
e|------------------|-------------------------|---7---8-8-7-----------|-----------------------|
B|----7---8-8-7-----|---8---10-10-8-----------|-8---8------8----------|---7-10--8--7----------|
G|--9---9-------9---|-9---9----------9--------|-----------------------|-8-------8--8--10------|
D|------------------|-------------------------|-----------------------|-----------------------|
A|------------------|-------------------------|-----------------------|-----------------------|
E|------------------|-------------------------|-----------------------|-----------------------|

        Em   // Bb  G
se incendio


Pd: tmb se repite en el 2do coro y hasta el FINALLL DE LA CANCION
----------------------------------------
Em  022000
C   032010
G   320033
D   000232
Bb  113331
 
Aviso: Este fichero es trabajo propio de su transcriptor y representa su interpretación personal de la canción. El material contenido en esta página es para exclusivo uso privado, por lo que se prohibe su reproducción o retransmisión, así como su uso para fines comerciales.
Más versiones de Miño, Los Bunkers
Miño
acordes
Miño (ver 2)
acordes
Miño (ver 3)
acordes
Miño (ver 4)
acordes
Miño (ver 5)
acordes
Miño
tablatura
Miño (ver 2)
tablatura
Miño
bajo
Miño (ver 2)
bajo
Descubre más canciones de Los Bunkers

Comentarios en Facebook: