El Detenido, Los Bunkers (tablatura)

Autor: Anónimo | 14626 visualizaciones

Esto es lo que se escucha por detras en el detenido ( en el coro ).

Nada que perdonar...


  --------------------------------|----------------------------------
  --------------------------------|----------------------------------
  --------------------------------|----------------------------------
  --------------------------------|----------------------------------
  ---------0--2----3-3---5---7----|----------0--2----3-3---5---7-----
  ----3-3-------------------------|----3--3--------------------------


  -------------------------------------------------------------------
  -------------------------------------------------------------------
  -------------------------------------------------------------------
  --------------------------------5--------7---5--4-5--4-------------
  ---------0--2----3-3---5---7--------7--------------------5---------
  ----3-3------------------------------------------------------------


  Todo esto de repite 3 veces.

  También se repite al final...

  Cualquier corrección: matias069@hotmail.com
Aviso: Este fichero es trabajo propio de su transcriptor y representa su interpretación personal de la canción. El material contenido en esta página es para exclusivo uso privado, por lo que se prohibe su reproducción o retransmisión, así como su uso para fines comerciales.

Comentarios en Facebook: