El Detenido, Los Bunkers (bajo) (ver 2)

Autor: Anonimo | 21731 visualizaciones

Los bunkers
-El Detenido.

A)

Tantas huellas que cicatrizar...

G---------------------------------------------
D---------------------------------------------
A--0-0-0-0-0--4-4-4-4-4--------------5-5-5-5-5
E------------------------1~3-3-3-3-3----------

En el suelo de cualquier lugar..

G-----------------------------------------------------
D-----------------------------------------------------
A--0-0-0-0-0--4-4-4-4-4--------------5-5-5-5-5---(7-7-7) >> Variacion optativa.
E------------------------1~3-3-3-3-3------------------

Donde la realidad, duerme escondida...

G------------------------------------------
D------------------------------------------
A-8~---12-12-12-12-11-11---8~--------------
E------------------------------------------

B)

Ya no puedo desaparecer, sin una explicación...

G---------------------------------------------
D---------------------------------------------
A--0-0-0-0-0--4-4-4-4-4--------------5-5-5-5-5
E------------------------1~3-3-3-3-3----------

En el aire siempre quedara metralla al corazón...

G-----------------------------------------------------------------
D------------------11-11-11-11-11---------------------------------
A--12-12-12-12-12------------------10-10-10-10-10---17-17-17-17-17
E-----------------------------------------------------------------

Ráfaga sin cesar, nada que perdonar
Perdonar...

G------------------------------------------
D------------------------------------------
A-8~---12-12-12-12-11-11---8~--------------
E------------------------------------------


C)
coro:

Soy un detenido...

G----------------------------|
D-------------------0--2-----|
A------0--2---3-3------------|
E-3-3------------------------|

G----------------------------|
D-------------------0--2-----|
A------0--2---3-3------------|
E-3-3------------------------|

G----------------------------|
D-------------------0--2-----|
A------0--2---3-3------------|
E-3-3------------------------|

G-------------------------------|
D----5-------7---5--4-----5--4--|
A--------7-------------5--------|
E-------------------------------|

He aprendido a abrazar la soledad...

G---------------------------------------------
D---------------------------------------------
A----0-0-0-0-0-------3-----5-----7------------
E---------------------------------------------

Pa,pa,pa...
G-----------------2---------------------------
D-----------2-4-5---5-4-2---------------------
A-----2-3-5---------------5-3-2---------------
E-3-5---------------------------5-------------



Tengo miles...
G---------------------------------------------
D---------------------------------------------
A--0-0-0-0-0-----3-----5-----7----------------
E---------------------------------------------


Aaaa...

G---------------------------------------------
D-------------------------4-------------------
A--------0-2-4------0-2-----------------------
E---3-3---------3-3---------------------------

B)

Ya no puedo desaparecer sin una explicación...

Ráfaga sin cesar, nada que perdonar
Perdonar...

C)

Soy un detenido soy...

B)

uhhh!.. uhhh!

Nada que perdonar, nada que olvidar.

G-------------------------------9--|
D---------------9-10-10--12--12----|
A--10-10--12-12--------------------|
E----------------------------------|

G-------------------------------9--|
D---------------9-10-10--12--12----|
A--10-10--12-12--------------------|
E----------------------------------|

G-------------------------------9--|
D---------------9-10-10--12--12----|
A--10-10--12-12--------------------|
E----------------------------------|

G-------------------------------|
D----5-------7---5--4-----5--4--|
A--------7-------------5--------|
E-------------------------------|

toda la cancion asi hasta el final..
Termina en Sol.

____
cualquier duda..
Orangethology@gmail.com

Saludos!
Benja.

Fuente original: LaCuerda
Colaborador original: Benjamin Liberona [orangethology@gmail.com]
Aviso: Este fichero es trabajo propio de su transcriptor y representa su interpretación personal de la canción. El material contenido en esta página es para exclusivo uso privado, por lo que se prohibe su reproducción o retransmisión, así como su uso para fines comerciales.

Comentarios en Facebook: