Corazon, Los Autenticos Decadentes (tablatura)

Autor: Anónimo | 39350 visualizaciones

esta es mi primer transcripcion,espero que les sirva:

e|-----------------------------------|
B|-0-1-(3)-0-3-0-3-0-----------------|
G|--------------------2-0-2-4--(2)---|
D|-----------------------------------|
A|-----------------------------------|
E|-----------------------------------|


e|---------------------------------------|
B|-------3-3-0-3-0--3-3-3-1-1-0-0--------|
G|-0-2-4-----------------------------2---|
D|---------------------------------------|
A|---------------------------------------|
E|---------------------------------------|


e-----------------------------------------|
B-3-3-3-0-0------------------1-0-1-0--(3)-|
G------------2-2-0--2-4-4-2---------------|
D-----------------------------------------|
A-----------------------------------------|
E-----------------------------------------|


e|---------------------------------------|
B|-0-1-3-0-3-0-3-0-----------------------|
G|------------------2-0-2-4-(2)----------|
D|---------------------------------------|
A|---------------------------------------|
E|---------------------------------------|


e|------------------------------|
B|-3-3-3--1-1-0-0---------------|
G|----------------2-2-0-4-2-----|
D|------------------------------|
A|------------------------------|
E|------------------------------|


e|---------------------------|
B|-3-0-3-0-3-0---------3-3---|
G|--------------2-0-2--------|
D|---------------------------|
A|---------------------------|
E|---------------------------|


e|------------------------------------|
B|-3-3-3--1-1-0-0---------------------|
G|------------------2-2-0-4-2-2-0-2---|
D|------------------------------------|
A|------------------------------------|
E|------------------------------------|


e|----------------------------------------|
B|--------------3--------------3-0-0-1-0--|
G|-0-2-4-4-4-4------4-2-4-2-0-------------|
D|----------------------------------------|
A|----------------------------------------|
E|----------------------------------------|


e|-----------------------------------|
B|---0-1-0---0-1-0----1-0------------|
G|-2-------2-------2-------0---------|
D|-----------------------------------|
A|-----------------------------------|
E|-----------------------------------|


e|--------------------------------------|
B|---------------5-3-2-5-3----3/5/3-----|
G|--0-4-2-2-2-2-------------------------|
D|--------------------------------------|
A|--------------------------------------|
E|--------------------------------------|


esta transcripcion se la dedico a:

_ a mi mejor amigo ariel o mas conocido como aparipi
_y especialmente a mi novia YAMILA(MOROCHA),que la
RE-AMO,y que le gusta este tema.

dudas,sugerencias
mi mail es :
gaston_gato22@msn.com
o si no tanbien
ak_47_00@hotmail.com

Fuente original: LaCuerda
Colaborador original: GASTON "PIPY" CORVALAN [gaston_gato22@msn.com]
Calificar esta versión:
Aviso: Este fichero es trabajo propio de su transcriptor y representa su interpretación personal de la canción. El material contenido en esta página es para exclusivo uso privado, por lo que se prohibe su reproducción o retransmisión, así como su uso para fines comerciales.
Más versiones de Corazon, Los Autenticos Decadentes
Corazon
acordes
Corazon
tablatura
Corazon
bajo
Corazon (ver 2)
bajo
Descubre más canciones de Los Autenticos Decadentes