Corazon, Los Autenticos Decadentes (bajo) (ver 2)

Autor: Wolfred | 43536 visualizaciones

Title: Corazon
Artist: Los Autenticos Decadentes
Album: Mi Vida Loca


Tabber: Cesar Alfredo Martinez Gallegos
Mail: fred_gal@outlook.com
Facebook: https://www.facebook.com/Cesar.Alfredo.Martinez.Gallegos?ref=tn_tnmn

Tempo = 90


Electric Bass


   INTRO					      x3
G |-------------------------|-------------------------||----------------------------|----|
D |--------5-----------7----|--------5-----------5----||--------5-------------------|----|
A |--3--------3--5--------5-|-----------5-----------5-||--3--------3--5-------------|----|
E |-------------------------|--3-----------3----------||----------------------------|----|


   VERSO					     x3
G |-------------------------|------------------------||----------------------------|----|
D |--------5-----------7----|-------5-----------5----||--------5-------------------|----|
A |--3--------3--5--------5-|----------5-----------5-||--3--------3--5-------------|----|
E |-------------------------|-3-----------3----------||----------------------------|----|


PRE-ESTRIBILLO
------------------------|-------------------------|------------------------|---------------------------|
-------5-----------5----|--------4-----------4----|-------5-----------5----|--------7------------------|
----------5-----------5-|--2-----------2----------|-3-----------3--------3-|--5-----------5--3--2------|
-3-----------3----------|-----------2-----------2-|----------3-------------|-----------5-----------5---|


---------------------------|----------------------------|----------------------------|----------------------------|
-------5-----------5-------|--------4-----------4-------|--------5-----------5-------|--------7-----------2--4----|
----------5-----------5----|--2-----------2-------------|--3-----------3--------3----|--5-----------5--5----------|
-3-----------3-------------|-----------2-----------2----|-----------3----------------|-----------5----------------|



ESTRIBILLO
|------------------------|------------------------|------------------------|-------------------------|
|-------5-----------5----|-------4-----------4----|-------5----------------|-------------------------|
|----------5-----------5-|-2-----------2----------|-3--------3--------5----|------7-----5--3--2------|
|-3-----------3----------|----------2-----------2-|-------------3--------3-|-5-------5-----------5---|



|------------------------|------------------------|------------------------|---------------------------|
|-------5-----------5----|-------4-----------4----|-------5----------------|-------------------2--4----|
|----------5-----------5-|-2-----------2----------|-3--------3--------5----|-------7-----5--5----------|
|-3-----------3----------|----------2-----------2-|-------------3--------3-|-5--------5----------------|




PUENTE MUSICAL
------------------------|------------------------|------------------------|--------------------------||
-------------5----------|-------5----------------|-------------5----------|-------5-----------2--4---||
-------3--5--------7--5-|-3--------3--5----------|-------3--5--------7--5-|-3--------3--5--5---------||
-3----------------------|-------------------7--5-|-3----------------------|--------------------------||


------------------------|------------------------|------------------------|---------------------------|
-------------5----------|-------2----------------|-------------5----------|-------5-------------------|
-------3--5--------5--3-|-2--------3--5----------|-------3--5--------5--3-|-3--------3--5--3--2-------|
-3----------------------|-------------------7--5-|-3----------------------|----------------------5----|


-------------------------|------------------------|------------------------|---------------------------|
-----------2--5-----2--0-|-------5----------------|----------2--5-----2--0-|-------5-------------------|
--------3----------------|-3--------3--5----------|-------3----------------|-3--------3--5-------------|
--3----------------------|-------------------7--5-|-3----------------------|---------------------------|



VERSO
|---------------------------|-------------------------||---------------------------|----||
|-------5-----------7-------|--------5-----------5----||-------5-------------------|----||
|-3--------3--5--------5----|-----------5-----------5-||-3--------3--5-------------|----||
|---------------------------|--3-----------3----------||---------------------------|----||



PRE-ESTRIBILLO
---------------------------|----------------------------|----------------------------|---------------------------||
-------5-----------5-------|--------4-----------4-------|--------5-----------5-------|--------7------------------||
----------5-----------5----|--2-----------2-------------|--3-----------3--------3----|--5-----------5--3--2------||
-3-----------3-------------|-----------2-----------2----|-----------3----------------|-----------5-----------5---||



---------------------------|----------------------------|----------------------------|----------------------------|
o------5-----------5-------|--------4-----------4-------|--------5-----------5-------|--------7-----------2--4----|
o---------5-----------5----|--2-----------2-------------|--3-----------3--------3----|--5-----------5--5----------|
-3-----------3-------------|-----------2-----------2----|-----------3----------------|-----------5----------------|



ESTRIBILLO
|---------------------------|----------------------------|----------------------------|---------------------------|
|-------5-----------5-------|--------4-----------4-------|--------5-------------------|---------------------------|
|----------5-----------5----|--2-----------2-------------|--3--------3--------5-------|--------7-----5--3--2------|
|-3-----------3-------------|-----------2-----------2----|--------------3--------3----|--5--------5-----------5---|


|---------------------------|----------------------------|----------------------------|----------------------------||
|-------5-----------5-------|--------4-----------4-------|--------5-------------------|--------------------2--4----||
|----------5-----------5----|--2-----------2-------------|--3--------3--------5-------|--------7-----5--5----------||
|-3-----------3-------------|-----------2-----------2----|--------------3--------3----|--5--------5----------------||


PUENTE MUSICAL...


ESTRIBILLO....



SALIDA
  						           x5
G |----------------------------|-------------------------||---------------------------|----|
D |--------5-----------7-------|--------5-----------5----||-------5-------------------|----|
A |--3--------3--5--------5----|-----------5-----------5-||-3--------3--5-------------|----|
E |----------------------------|--3-----------3----------||---------------------------|----|



Tabber: Cesar Alfredo Martinez Gallegos
Mail: fred_gal@outlook.com
Facebook: https://www.facebook.com/Cesar.Alfredo.Martinez.Gallegos?ref=tn_tnmn
Calificar esta versión:
Aviso: Este fichero es trabajo propio de su transcriptor y representa su interpretación personal de la canción. El material contenido en esta página es para exclusivo uso privado, por lo que se prohibe su reproducción o retransmisión, así como su uso para fines comerciales.
Más versiones de Corazon, Los Autenticos Decadentes
Corazon
acordes
Corazon
tablatura
Corazon
bajo
Corazon (ver 2)
bajo
Descubre más canciones de Los Autenticos Decadentes