María, Liran'Roll (tablatura) (ver 3)

Autor: Anónimo | 19302 visualizaciones



Este es solo el arreglo que se oye bien obviamente en
guitarra eléctrica:

INTRODUCCIÓN:


1|-----------|-10----|-14^-14*12-------|--------|----||
2|--------10-|----12-|-----------12-10-|--------|----||
3|--10*11----|-------|-----------------|-11*12--|-11-||
4|-----------|-------|-----------------|--------|----||
5|-----------|-------|-----------------|--------|----||
6|-----------|-------|-----------------|--------|----||

1|-14---12---10---|--10------------|--14---12---10---||
2|------12---10---|--10---12--10---|-------12---10---||
3|----------------|----------------|-----------------||
4|----------------|----------------|-----------------||
5|----------------|----------------|-----------------||
6|----------------|----------------|-----------------||

1|-14--14*15--16--17----16--15-|--14--13--12--|--10--||
2|-----------------------------|------13--12--|--10--||
3|-----------------------------|--------------|------||
4|-----------------------------|--------------|------||
5|-----------------------------|--------------|------||
6|-----------------------------|--------------|------||


SOLO:

1|--------------|--10^-10~~~~|--10---------|-------------------------|
2|--10--12--10--|------------|--10---------|-------------------------|
3|--------------|------------|------10>11--|--11*12--14--12*11----14-|
4|--------------|------------|-------------|-------------------12----|
5|--------------|------------|-------------|-------------------------|
6|--------------|------------|-------------|-------------------------|

1|-----------------------------|----------------------------------------|
2|-----------------------------|-13-13-13--13-13-13--13-13-13--13-13-13-|
3|--12*11-----14---12*11-------|-14-14-14--14-14-14--14-14-14--14-14-14-|
4|--------12-------------12-14-|----------------------------------------|
5|-----------------------------|----------------------------------------|
6|-----------------------------|----------------------------------------|

1|--------------------|-----------------------10-12^--|-14--------17-15----|
2|-13--11--10----7----|-----------------10-12---------|-----17*15-------17-|
3|-14--12--10----7----|---------9-11-12---------------|--------------------|
4|--------------------|-9-11-12-----------------------|--------------------|
5|--------------------|-------------------------------|--------------------|
6|--------------------|-------------------------------|--------------------|

1|-------------------------|--------------------------|------------------------|
2|-15-------15-15-------15-|-15-------15-15-------15^-|19-17*19*17-17----17----|
3|----14*16-------14*16----|----14*16-------14*16-----|---------------19----19-|
4|-------------------------|--------------------------|------------------------|
5|-------------------------|--------------------------|------------------------|
6|-------------------------|--------------------------|------------------------|

1|----17----17----17----17-|-19*17----19--17~~~|-19*17----19--17~~~|
2|-19----19----19----19----|-------19----------|-------19----------|
3|-------------------------|-------------------|-------------------|
4|-------------------------|-------------------|-------------------|
5|-------------------------|-------------------|-------------------|
6|-------------------------|-------------------|-------------------|

1|-19*17----19--17~~~|-19*17----19--17~~~|---------------------------|
2|-------19----------|-------19----------|---------------------------|
3|-------------------|-------------------|-13*14-14-14^-13*14-14-14^-|
4|-------------------|-------------------|---------------------------|
5|-------------------|-------------------|---------------------------|
6|-------------------|-------------------|---------------------------|

1|------------------|-13--13--13-13-13--13-13-13--13-13-13--|
2|------------------|-15--15--15-15-15--15-15-15--15-15-15--|
3|-13^-13^-13^-13^--|---------------------------------------|
4|------------------|---------------------------------------|
5|------------------|---------------------------------------|
6|------------------|---------------------------------------|

1|-17--15----15-----------|-------------------------|
2|--------18----18--15----|-15^-15^-15^-------------|
3|---------------------17-|-------------12*14--11~~~|
4|------------------------|-------------------------|
5|------------------------|-------------------------|
6|------------------------|-------------------------|

1|-------|------------------------------------|
2|-------|------------------------------------|
3|----1--|-14--12*11----11-14--12*11----11----|
4|-12----|-----------12--------------12----12-|
5|-------|------------------------------------|
6|-------|------------------------------------|

1|--------------------------|---------------|-----||
2|-----13----13-------------|---------------|-----||
3|--14----14----14-12-------|---------------|-----||
4|--------------------14-11-|-12---------14-|-12--||
5|--------------------------|------12*14----|-----||
6|--------------------------|---------------|-----||


Ahí está la introducción y el solo pues
es lo único que pedían.
Adios





Calificar esta versión:
Aviso: Este fichero es trabajo propio de su transcriptor y representa su interpretación personal de la canción. El material contenido en esta página es para exclusivo uso privado, por lo que se prohibe su reproducción o retransmisión, así como su uso para fines comerciales.
Más versiones de María, Liran'Roll
María
acordes
María
tablatura
María (ver 2)
tablatura
María (ver 3)
tablatura
Descubre más canciones de Liran'Roll