María, Liran'Roll (tablatura)

Autor: Anónimo | 18491 visualizaciones



e---------- -10----- 14bend-14/12--------- ---------- 
B-------10- -----12- -------------12--10-- ----------
G-10/11---- -------- --------------------- --11/12---
D---------- -------- --------------------- ----------
A---------- -------- --------------------- ----------
E---------- -------- --------------------- ----------

e------14---12-10----10-------  -14--12-10-
B-----------12-10----10--12-10- -----12-10-
G---11------------------------- -----------
D------------------------------ -----------
A------------------------------ -----------
E------------------------------ -----------

e-14------14/15--16- -17---16-15-14- -13-12 -10-
B------------------- --------------- -13-12 -10-
G------------------- --------------- ------ ---- 
D------------------- --------------- ------ ----
A------------------- --------------- ------ ----
E------------------- --------------- ------ -----


esta chida esta rola nos vemos banda hasta luego.





Calificar esta versión:
Aviso: Este fichero es trabajo propio de su transcriptor y representa su interpretación personal de la canción. El material contenido en esta página es para exclusivo uso privado, por lo que se prohibe su reproducción o retransmisión, así como su uso para fines comerciales.
Más versiones de María, Liran'Roll
María
acordes
María
tablatura
María (ver 2)
tablatura
María (ver 3)
tablatura
Descubre más canciones de Liran'Roll