Numb, Linkin Park (tablatura) (ver 2)

Autor: bestbike | 17375 visualizaciones



espero y les guste esta cancion muy facil si tienen muy buen oido musical

y espero que estas tablaturas los ayuden muxo muxo

solo pido y dejen comentarios de sugerencias o me contactan a mi correo

[email protected]


linkin park----numb

Intro (sample) 
Eb ------------15--18--17--------------18--17--13----
Bb –15-18-15----------------15-18-15-----------------
Gb --------------------------------------------------
Db --------------------------------------------------
Ab --------------------------------------------------
Db --------------------------------------------------

Guitar 1 (distortion)
Eb ---------------------------------------
Bb ---------------------------------------
Gb ---------------------------------------
Db --5--gradually increase volume---------
Ab ---------------------------------------
Db ---------------------------------------

Eb -------------------------
Bb -------------------------
Gb -------------------------
Db --5----1----8----3-------
Ab --5----1----8----3-------
Db --5----1----8----3-------

Verse (Piano but I just play clean guitar)
Guitar 2 (clean)
Eb ----------------------------
Bb --3-------------------------
Gb --0--0-0-0-3----7----5------ X2
Db -----------1----5----7------
Ab ----------------------------
Db ----------------------------

Pre – Chorus
Guitar 2
Eb ----------------------------------------------------
Bb ----3------3-------3-----3--3-------3-------3-------
Gb --0--0-0-2---0-0-3---0-0-3----0-0-0---0-0-2---0-0---
Db -----------------5----------------------------------
Ab ----------------------------------------------------
Db ----------------------------------------------------

Chorus
Guitar 1
Eb --------------------------------------
Bb --------------------------------------
Gb --------------------------------------
Db --5--gradually increase volume--------
Ab --------------------------------------
Db --------------------------------------

Eb ------------------------
Bb ------------------------
Gb ------------------------
Db --5----1----8----3------
Ab --5----1----8----3------
Db --5----1----8----3------

Guitar 2 (clean)
Eb ------------------------------------
Bb --3---3---3---4---3---3---1---1-----
Gb ----0---0---0---0---0---0---0---0--- 
Db ------------------------------------ repeat
Ab ------------------------------------
Db ------------------------------------

Verse 2
Guitar 2
Eb -----------------------------------------------------
Bb -3------3-----3-----3-----3-----3----3-3----1-3------
Gb -0-0-0-3-0-0-5-0-0-2-0-0-0-0-0-3-0-0-3--0-0-2---0-0--
Db -----------------------------------------------------
Ab -----------------------------------------------------
Db -----------------------------------------------------

Pre – Chorus, Chorus

Bridge
Guitar 1
Eb ----------------------------------------------
Bb ----------------------------------------------
Gb ----------------------------------------------
Db --1----3----5--7--8--0--1----3----0-----0-----
Ab --1----3----5--7--8--0--1----3----0-----0-----
Db --1----3----5--7--8--0--1----3----0-----0-----

Guitar 2
Eb ------------------------------------
Bb --3---3---3---4---3---3---1---1-----
Gb ----0---0---0---0---0---0---0---0--- X3
Db ------------------------------------
Ab ------------------------------------
Db ------------------------------------

Eb ------------------------------------------
Bb --3---3---1---1---------3---3---3---3-----
Gb ----0---0---0---0--X2-----0---0---0---0---
Db ------------------------------------------
Ab ------------------------------------------
Db ------------------------------------------





Calificar esta versión:
Aviso: Este fichero es trabajo propio de su transcriptor y representa su interpretación personal de la canción. El material contenido en esta página es para exclusivo uso privado, por lo que se prohibe su reproducción o retransmisión, así como su uso para fines comerciales.
Más versiones de Numb, Linkin Park
Numb
acordes
Numb (ver 2)
acordes
Numb (ver 3)
acordes
Numb
tablatura
Numb (ver 2)
tablatura
Numb
bajo
Numb
video guitarra
Descubre más canciones de Linkin Park