Numb, Linkin Park (bajo)

Autor: shadow070894 | 22235 visualizaciones



Numb 

Intro
  
G|----------------------------|
D|--------------------------7-|
A|----------------3-----------|
E|----5-----1----------3------|
 
Verso

G|--------------------------|--------------------------|-----------------------------------|
D|--------------------------|--------------------------|-----------------------------------|
A|----------------3---------|----------------3---------|------3-----3--1---3--5------3-----|
E|----5-----1----------3----|----5-----1----------3----|---3----5-----------------3----5---|
 
Coro
  
G|--------------------------|--------------------------|
D|--------------------------|--------------------------|
A|----------------3---------|----------------3---------|
E|----5-----1----------3----|----5-----1----------3----|
   
Verso 

G|--------------------------|--------------------------|------------------------------------------------|
D|--------------------------|--------------------------|------------------------------------------------|
A|----------------3---------|----------------3---------|------3-----3--1---3--5------3-----3--1---3--5--|
E|----5-----1----------3----|----5-----1----------3----|---3----5-----------------3----5----------------|

Coro
  
G|--------------------------|--------------------------|
D|--------------------------|--------------------------|
A|----------------3---------|----------------3---------|
E|----5-----1----------3----|----5-----1----------3----|

Puente

G|-------------------------------------|
D|-------------------------------------|
A|-------------------------------------|
E|--1--3--5--7--8--0--1----3--1--1--1--|
 
Coro
  
G|--------------------------|--------------------------|
D|--------------------------|--------------------------|
A|----------------3---------|----------------3---------|
E|----5-----1----------3----|----5-----1----------3----|

G|--------------------------|--------------------------|
D|--------------------------|--------------------------|
A|----------------3---------|----------------3---------|
E|----5-----1----------3----|----5-----1----------3----|





Calificar esta versión:
Aviso: Este fichero es trabajo propio de su transcriptor y representa su interpretación personal de la canción. El material contenido en esta página es para exclusivo uso privado, por lo que se prohibe su reproducción o retransmisión, así como su uso para fines comerciales.
Más versiones de Numb, Linkin Park
Numb
acordes
Numb (ver 2)
acordes
Numb (ver 3)
acordes
Numb
tablatura
Numb (ver 2)
tablatura
Numb
bajo
Numb
video guitarra
Descubre más canciones de Linkin Park