Bleed It Out, Linkin Park (tablatura) (ver 3)

Autor: DIEGHOX_12 | 25613 visualizaciones



INTRO:
 E:-9----9----9--9----9---9---7----7----7--7777-5555-----.
 B:----7--7-7--7--7-7--7-7--7--7-7--7-7--7---------------.
 G:------------------------------------------------------.
 D:------------------------------------------------------. 
 A:------------------------------------------------------.
 D:------------------------------------------------------.

Prechorus:
 E:-------------------9----9----9--9----9----9----------------------7----7----7--7777-5555-|
 B:-77777777-99999999--7-7--7-7--7--7-7--7-7--7--77777777-99999999---7-7--7-7--7-----------|
 G:----------------------------------------------------------------------------------------|
 D:----------------------------------------------------------------------------------------|
 A:----------------------------------------------------------------------------------------|
 D:----------------------------------------------------------------------------------------|

Coro:
E|---------------------------------------------------------------------------|
B|---------------------------------------------------------------------------|
G|---------------------------------------------------------------------------| 
D|---------------------------------------------------------------------------| 
A|---------00004444-22222222-77774444-----------00004444-22222222-77774444---| 
D|44444444-----------------------------44444444----------------------------4\| 

VERSO 2:

E:-9----9----9--9----9---9---7----7----7--7777-5555-----.
 B:----7--7-7--7--7-7--7-7--7--7-7--7-7--7---------------.
 G:------------------------------------------------------.
 D:------------------------------------------------------. 
 A:------------------------------------------------------.
 D:------------------------------------------------------.

PRE-CORO:
 E:-------------------9----9----9--9----9----9----------------------7----7----7--7777-5555-|
 B:-77777777-99999999--7-7--7-7--7--7-7--7-7--7--77777777-99999999---7-7--7-7--7-----------|
 G:----------------------------------------------------------------------------------------|
 D:----------------------------------------------------------------------------------------|
 A:----------------------------------------------------------------------------------------|
 D:----------------------------------------------------------------------------------------|

CORO 2:
E|---------------------------------------------------------------------------|
B|---------------------------------------------------------------------------|
G|---------------------------------------------------------------------------| 
D|---------------------------------------------------------------------------| 
A|---------00004444-22222222-77774444-----------00004444-22222222-77774444---| 
D|44444444-----------------------------44444444----------------------------4\| 
 
Y SIGUE:
E:--------------------------------           ------------------------|
B:--------------------------------           ------------------------|
G:-6-6-6-6-6-6-6-6-4-4-4-4-4-4-4-4           ------------------------|
D:-6-6-6-6-6-6-6-6-4-4-4-4-4-4-4-4 x2 Y LUEGO  -00-00-0--22-22-2--(4?)-|
A:-4-4-4-4-4-4-4-4-2-2-2-2-2-2-2-2           -00-00-0--22-22-2--(4?)-|
D:--------------------------------           -00-00-0--22-22-2--(4?)-|

CORO 3:
E|---------------------------------------------------------------------------|
B|---------------------------------------------------------------------------|
G|---------------------------------------------------------------------------| X 2
D|---------------------------------------------------------------------------| 
A|---------00004444-22222222-77774444-----------00004444-22222222-77774444---| 
D|44444444-----------------------------44444444----------------------------4\| 

Y SIGUE EL FINAL :
 E:-------------------------------------------
 B:----------------2222-----------------------.
 G:------1111-2222------4444-1111-2222-1111---.X2
 D:-4444------------------------------------4-.
 A:-------------------------------------------.
  D:-------------------------------------------





Comentarios del colaborador: por favor voten bn es mi segunda cancion espero q les guste

Calificar esta versión:
Aviso: Este fichero es trabajo propio de su transcriptor y representa su interpretación personal de la canción. El material contenido en esta página es para exclusivo uso privado, por lo que se prohibe su reproducción o retransmisión, así como su uso para fines comerciales.
Más versiones de Bleed It Out, Linkin Park
Bleed It Out
tablatura
Bleed It Out (ver 2)
tablatura
Bleed It Out (ver 3)
tablatura
Descubre más canciones de Linkin Park