Bleed It Out, Linkin Park (tablatura) (ver 2)

Autor: angelcat | 29957 visualizaciones



1---------9----9--9-----9----9---9-----7------7---7----7------7--7
2-----7-7--7-7--7---7-7--7-7---7----7-7---7-7---7---7-7---7-7---7
3-----------------------------------------------------------------
4-----------------------------------------------------------------
5-----------------------------------------------------------------
6-----------------------------------------------------------------


1--------5-----5---5-----5-----5---5
2----7-7---7-7---7---7-7---7-7---7--
3-----------------------------------   x2
4-----------------------------------
5-----------------------------------
6-----------------------------------

estas es el intro no es completa espero q les guste  
salu2





Calificar esta versión:
Aviso: Este fichero es trabajo propio de su transcriptor y representa su interpretación personal de la canción. El material contenido en esta página es para exclusivo uso privado, por lo que se prohibe su reproducción o retransmisión, así como su uso para fines comerciales.
Más versiones de Bleed It Out, Linkin Park
Bleed It Out
tablatura
Bleed It Out (ver 2)
tablatura
Bleed It Out (ver 3)
tablatura
Descubre más canciones de Linkin Park