Mision Imposible, Limp Bizkit (tablatura) (ver 2)

Autor: brian-mauricio | 17829 visualizaciones

bueno espero q les gust
es mi primera cancion
dejen sus comentarios...



5*-----------2-4------------        x2
6*-----4-4-4-----4-4-4-2-3-4



5*-----------1-3------------        x2
6*-----3-3-3-----3-3-3-1-2-3



2*-----1-----1-----1--------
3*------2-----2-----2-------     
4*-------2-----1-----0-----0
5*-------------------------3




escuchen la cancion para agarar el ritmo....

grax....
Calificar esta versión:
Aviso: Este fichero es trabajo propio de su transcriptor y representa su interpretación personal de la canción. El material contenido en esta página es para exclusivo uso privado, por lo que se prohibe su reproducción o retransmisión, así como su uso para fines comerciales.
Más versiones de Mision Imposible, Limp Bizkit
Mision Imposible
tablatura
Mision Imposible (ver 2)
tablatura
Descubre más canciones de Limp Bizkit