Mision Imposible, Limp Bizkit (tablatura)

Autor: genio | 42924 visualizaciones

INTRO (x8)

e|--------------------------------------------------------------
B|-------------------------------------------------------------
G|--------------------------------------------------------------
D|--------------------------------------------------------------
A|---------------------------8h10p8-----------------------------
E|-10--10--10--10--10--10---------------10--10--10--10--10--10--8--9--


Verso 
                                            
e|-16------16------16------16--------------------------------|
B|---18------18------18------18------------------------------|
G|-----17------16------15------18--18-18-18--17-17-17--------|
D|-----------------------------------------------------------|
A|-----------------------------------------------------------|
E|-----------------------------------------------------------|
Calificar esta versión:
Aviso: Este fichero es trabajo propio de su transcriptor y representa su interpretación personal de la canción. El material contenido en esta página es para exclusivo uso privado, por lo que se prohibe su reproducción o retransmisión, así como su uso para fines comerciales.
Más versiones de Mision Imposible, Limp Bizkit
Mision Imposible
tablatura
Mision Imposible (ver 2)
tablatura
Descubre más canciones de Limp Bizkit