Behind Blue Eyes, Limp Bizkit (tablatura) (ver 4)

Autor: GoSlipknot | 33774 visualizaciones

|-------0------------|
|---------2----------|
|----------2--------2|
|-----------0-----0--|
|---------------0----|
|-------------0------|

|--------3--------------|
|---------2-------------|
|-----------0---------0-|
|-------------0------0--|
|------------------0----|
|----------------0------|

|------------------------|
|------------------------|
|---------0--------------|
|-----------2--2-----2---|  2veces
|------------3-----3---3-|
|----------------0-------|

|---------------------------|
|--------3------------------|
|----------2---2------2-----|
|------------0------0-------| 2 veces
|-----------------3---------|
|----------------0----------|
Calificar esta versión:
Aviso: Este fichero es trabajo propio de su transcriptor y representa su interpretación personal de la canción. El material contenido en esta página es para exclusivo uso privado, por lo que se prohibe su reproducción o retransmisión, así como su uso para fines comerciales.
Más versiones de Behind Blue Eyes, Limp Bizkit
Behind Blue Eyes
acordes
Behind Blue Eyes (ver 2)
acordes
Behind Blue Eyes
tablatura
Behind Blue Eyes (ver 2)
tablatura
Behind Blue Eyes (ver 3)
tablatura
Behind Blue Eyes (ver 4)
tablatura
Behind Blue Eyes (ver 5)
tablatura
Descubre más canciones de Limp Bizkit