Behind Blue Eyes, Limp Bizkit (tablatura) (ver 3)

Autor: tHe GaSpEr | 39972 visualizaciones

esta es la tablatura real de la cancion behin blue eyes


E|----------------0--------------|----------------0-------
B|------------------0------------|-------------------0---
G|------------0--------0---------|------------0-------0---
D|---------2--------------2------|--------0------------0--
A|------2------------------------|-----2-----------------
E|---0---------------------------|--3-----------------------

E|-------------0-----------------|
B|--------3-------3--------------|
G|-----2----2--------2-----------| (x2)
D|---0-----------------0---------|
A|-------------------------------|
E|-------------------------------|

E|-----------0--------------------|
B|-------------3------------------I
G|------0--------0----------------I(X2)
D|----2---2---------2-------------I
A|--3-----------------------------|
E|--------------------------------|


E|----------0--------------------|
B|------------0------------------I
G|------2-------2----------------|(2)
D|----2---2-------2--------------|
A|--0----------------------------|
E|-------------------------------|



Y DESPUES SE REPITE LO MISMO DESDE EL PRINCIPIO
Calificar esta versión:
Aviso: Este fichero es trabajo propio de su transcriptor y representa su interpretación personal de la canción. El material contenido en esta página es para exclusivo uso privado, por lo que se prohibe su reproducción o retransmisión, así como su uso para fines comerciales.
Más versiones de Behind Blue Eyes, Limp Bizkit
Behind Blue Eyes
acordes
Behind Blue Eyes (ver 2)
acordes
Behind Blue Eyes
tablatura
Behind Blue Eyes (ver 2)
tablatura
Behind Blue Eyes (ver 3)
tablatura
Behind Blue Eyes (ver 4)
tablatura
Behind Blue Eyes (ver 5)
tablatura
Descubre más canciones de Limp Bizkit