Morrisey, Leo Garcia (acordes) (ver 2)

Autor: Anónimo | 34095 visualizaciones

bmcdemg9


 ------ Leo García ------ 
- Morrisey [Mar - 2001]-
Tablaturas y acordes p/Guitarra

Intro: 

e-----------------------------------------------
B-----------------------------------------------
G-------------4---------------4-----------------
D--2-2--4-5-0---0--2-2--4-5-0---0--------------- [repite]
A-----------------------------------------------
E-----------------------------------------------

Estrofa sobre punteo del intro

Sabra tu novia que escuchamos Morrisey
que me extrañas mas de lo que ella te extraña
Sabra tu novia que escuchamos Morrisey
con quien estabas la vez que le llamabamos

       Em                  G9
Pero hay algo que vos no sabes
       Em                         G9
y es que hablamos mal de vos una vez
      Em                      G9
y bien de alguien que no conocés
     Em                    G9
Los dos nos cansamos del amor
   Em                       D
y vos no sabés lo que es cansarse

  C                         G9
Ella escucha Biorjk, Bob y Beck
  C                     G9
Ella repite la palabra Dj
  Em                             Bm
Ella escucha el disco que te regalé
     C                      G9
Pero se que no sabe de Morrisey

      Em                    Bm
Morrisey, Morrisey, Morrisey
     C                      G9
Morrisey, Morrisey, Morrisey


[repite estructura anterior]

Sabrá tu novia qque escuchamos Morrisey
que dejaste mis llaves en el auto de ella
Sabra tu novia que escuchamos Morrisey
que tus amigos saben mas que vos de ella

Pero hay algo que vos no sabes
y es que hablamos mal de vos una vez
y bien de alguien que no conocés
Los dos nos cansamos del amor
y vos no sabés lo que es cansarse

Ella escucha Biorjk, Bob y Beck
Ella repite la palabra Dj
Ella escucha el disco que te regalé
Pero se que no sabe de Morrisey

Morrisey, Morrisey, Morrisey
Morrisey, Morrisey, Morrisey  [bis x3]

Termina con intro:    
e---------------------------------------------------
B---------------------------------------------------
G-------------4---------------4---------------------
D--2-2--4-5-0---0--2-2--4-5-0---0-[repite x2]--2----
A---------------------------------------------------
E---------------------------------------------------

Correcciones, comentarios a cuarta_d@hotmail.com 

Fuente original: LaCuerda
Colaborador original: mariano [cuarta_d@hotmail.com]





Calificar esta versión:
Aviso: Este fichero es trabajo propio de su transcriptor y representa su interpretación personal de la canción. El material contenido en esta página es para exclusivo uso privado, por lo que se prohibe su reproducción o retransmisión, así como su uso para fines comerciales.
Más versiones de Morrisey, Leo Garcia
Morrisey
acordes
Morrisey (ver 2)
acordes
Morrisey (ver 3)
acordes
Descubre más canciones de Leo Garcia