Morrisey, Leo Garcia (acordes)

Autor: Anónimo | 19827 visualizaciones

a7c-gddsus4emgla


 Transcripcion: Sebastian DoCurral y German Gutierrez.

Intro:

[letra de la intro: Sabrá tu novia que escuchamos Morrisey, que me extrañas mas 
de lo que ella te extraña. Sabrá tu novia que escuchamos Morrisey, con quién estabas
la vez que te llamabamos]

                                         Sabrá.... morrisey...   entrañas..   entraña...
1------------------|------------------|------------------|------------3-----------0-------|
2------------------|------------------|------------------|-------------4-----------0-0----|
3------------4-----|------------4-----|------------4-----|--------------5-----------4--5-4|
4-2--2-4-5-0---0-2-|-2--2-4-5-0---0-2-|-2--2-4-5-0---0-2-|------------5-----------5-------|
5------------------|------------------|------------------|--------------------------------|
6------------------|------------------|------------------|--------------------------------|

                         con quién         llamabamos
1------------------|------------3-----------0-----------
2------------------|-------------4-----------0-0--------
3------------4-----|--------------5-----------4--5-4-2-0
4-2--2-4-5-0---0-2-|------------5-----------5-----------
5------------------|------------------------------------
6------------------|------------------------------------

     C/G		  G
Pero hay algo que vos no sabes
	    C/G			  G
y es que hablamos mal de vos una vez
         C/G		      G
y bien de alguien que no conoces
 C/G                       G   [y jugar con La cuerda 1]
los dos nos cansanmos del amor
 C/G                       A7
y vos no sabes lo que es cansarse

        D                    G [y jugar con La cuerda 1, traste 5]
Ella escucha Bjork, Pow y Beck
        D               G
Ella repite la palabra DJ
      C/G                    D
Ella escucha el disco que te regale
     C/G                   G
pero se que no sabe de morrisey

     Em               D   Dsus4
Morrisey Morrisey Morrisey
     C/G               G
Morrisey Morrisey Morrisey

 - Repite los mismo acordes -

   [repetir el punteo del Intro]
Sabra tu novia que escuchamos morrisey
que dejaste mis llaves en el auto de ella
Sabra tu novia que escuchamos morrisey
Que tus amigos saben mas que vos de ella

Pero hay algo que vos no sabes
y es que hablamos mal de vos una vez
y bien de alguien que no conoces
los dos nos cansanmos del amor
y vos no sabes lo que es cansarse

Era Bjork, Pow y Beck
Ella repite la palabra DJ
Ella escucha el disco que te regale
pero se que no sabe de morrisey

Morrisey Morrisey Morrisey
Morrisey Morrisey Morrisey 

Fuente original: LaCuerda
Colaborador original: German Gutierrez [german_martin@ciudad.com.ar]





Calificar esta versión:
Aviso: Este fichero es trabajo propio de su transcriptor y representa su interpretación personal de la canción. El material contenido en esta página es para exclusivo uso privado, por lo que se prohibe su reproducción o retransmisión, así como su uso para fines comerciales.
Más versiones de Morrisey, Leo Garcia
Morrisey
acordes
Morrisey (ver 2)
acordes
Morrisey (ver 3)
acordes
Descubre más canciones de Leo Garcia