Esa Pared, Leo Dan (tablatura) (ver 2)

Autor: Anónimo | 36048 visualizaciones

         //// ////    //// ////    ////  ////   //// ////
          Bm  E7       A   F#m7     Bm   E       A   F#m7
trp 1
 --7-7-10--------5-5-9---------5-7-5---4---4-5-7-9---------
 ---------7------------5-----------------------------------
 ----------------------------------------------------------
 ----------------------------------------------------------
 ----------------------------------------------------------
 ----------------------------------------------------------

trp 2
 ----------------------------------------------------------
 ------7-------------5---------7-9-7---5---5-7-9-10--------
 --7-7----7------6-6---6-----------------------------------
 ----------------------------------------------------------
 ----------------------------------------------------------
 ----------------------------------------------------------


         ////    ////   ////   ////      ////  ////     //// //// /
          Bm     E       A     F#m        Bm   E        A   
trp1-2
 -------------------------------------5-7-5---4---2-4-7-5-----------
 --------77777------------5555--------------------------------------
 --------77777------------6666--------6-7-6---4---2-4-7-6-----------
 -------------------------------------------------------------------
 -------------------------------------------------------------------
 -------------------------------------------------------------------

                  A      F#7                    Bm 
  si pudiera estrechar_te     seria tan dichoso

  E               E7                    A
  el mundo mas hermoso lo veria por ti

  F#m                    C#m7 
   pero no se que hay     entre nosotros

   D                       A
    que me separa   cada dia mas de ti

[CORO]
         //// ////  //// ////        //// //// //// ////      //// ////  //// ////           //// //// //// ////
         Bm7        E                A                        Bm         E7                  A
 -------------------------------------------------------------------7-9-10--------------------------12-12-10-9--10-12-----
 --------------------------------------------------------------------------9------------------------14-14-12-10-12-14-----
 -------------------------------------------------------------------------------------------------------------------------
 -------------------------------------------------------------------------------------------------------------------------
 -------------------------------------------------------------------------------------------------------------------------
 -------------------------------------------------------------------------------------------------------------------------
   ESA PARED          QUE NO ME DEJA VERTE,              DEBE CAER              POR OBRA DEL AMOR
                                                                       
                                                                                             //// ////
         Bm         E                A                        Bm         E7                  A
 -------------------------------------------------------------------7-10-7-5-4----7--5-----------------789----
 -------------------------------------------------------------------9-12-9-7-5---------------------7910-------
 ---------------------------------------------------------------------------------7--6------------------------
 -------------------------------------------------------------------------------------------------------------
 -------------------------------------------------------------------------------------------------------------
 -------------------------------------------------------------------------------------------------------------
   ESA PARED          QUE NOS SEPARA SIEMPRE,            DEBE CAER,             DEBEMOS PLATICAR

      //// //// //// ////                      //// //// //// ////
      F#m       F#m7                           B         B7
  las horas que pensando estoy en ti se hacen eternas

    //// ////                  //// ////         //// //// //// ////
    F#m                        F#m7              B
  como es posible que tu ni comprendas cuanto te quiero

           /  //  /  //             / //           / / / / 
           D                        A              E
 --------------5--4--2----------------------12-12-------------9---10-------------9---10------------9--------
 ----------------------------------------10--------9--10-12---------------------------7---------------------
 --------------------------------------9--------------------------------------------------------------------
 -----------------------------------------------------------------------------------------------------------
 -----------------------------------------------------------------------------------------------------------
 -----------------------------------------------------------------------------------------------------------
  y mi corazon          seria tan feliz            si tu eres mia,    si tu eres mia,   si tu eres mia


[CORO]
         //// ////  //// ////        //// //// //// ////      //// ////  //// ////           //// //// //// ////
         Bm7        E                A                        Bm         E7                  A
 -------------------------------------------------------------------7-10-7-5-4----7--5------------------------
 -------------------------------------------------------------------9-12-9-7-5--------------------------------
 ---------------------------------------------------------------------------------7--6------------------------
 -------------------------------------------------------------------------------------------------------------
 -------------------------------------------------------------------------------------------------------------
 -------------------------------------------------------------------------------------------------------------
   ESA PARED          QUE NO ME DEJA VERTE,              DEBE CAER              POR OBRA DEL AMOR


           Bm     E    A                              Bm      E7    A
(hablado)  
          esa pared que nos separa siempre mi amor,  debe caer por ese amor tan grande que existe entre tu y yo


            //// ////  //// ////         //// //// //// ////        //// ////  //// ////          //// //// //// //// /
            Bm         E                 A                          Bm7        E                  A 
 ---------------7-7-10----7-7-10----7-9--7-975-----------------7-7-10----7-7-10------7-9-7-9-7-5------14-12-10-14-12------
 ----------------------7---------7-------------5----------------------7---------7-----------------------------------------
 -------------------------------------------------------------------------------------------------------------------------
 -------------------------------------------------------------------------------------------------------------------------
 -------------------------------------------------------------------------------------------------------------------------
 -------------------------------------------------------------------------------------------------------------------------
   la ra ra ra,           la ra ra ra ra ra ra,                debe caer,            debemos platicar 



esta cancion se la dedico a un amor, para ti Alejandrina
Calificar esta versión:
Aviso: Este fichero es trabajo propio de su transcriptor y representa su interpretación personal de la canción. El material contenido en esta página es para exclusivo uso privado, por lo que se prohibe su reproducción o retransmisión, así como su uso para fines comerciales.
Más versiones de Esa Pared, Leo Dan
Esa Pared
acordes
Esa Pared
tablatura
Esa Pared (ver 2)
tablatura
Descubre más canciones de Leo Dan