Esa Pared, Leo Dan (tablatura)

Autor: Anónimo | 39309 visualizaciones

INTRO
       Em A7         D      Em A7          D
e 0-0-2-----0-2-0-2-0--0-0-2------0-2-0-2-0-]
B -----0-------------3------0--------------3]
G --------------------2---------------------]
D ------------------------------------------]
A ------------------------------------------]
E ------------------------------------------]

RIFF 1                   RIFF 2
e-0-2-2-2-2-2-0-      e-2-3-3-3-3-3-2--
B---------------      B----------------
G---------------      G----------------
D---------------      D----------------
A---------------      A----------------
E---------------      E----------------

 RIFF 3
e-12-12-12-12-12-12-------
B-------------------12----
G-------------------------
D-------------------------
A-------------------------
E-------------------------


aqui nomas se toca con un rasgueo.

                  D                  Em
Si pudiera estrecharte sería tan dichoso,
                 A7                D
el mundo más hermoso lo vería por ti,
         Bm                 F#m
pero no sé qué hay entre nosotros,
          G                    A7
que me separa cada día más de ti.

aqui empieza kon el ritmo de un circulo (balada)

       Em  A7                     D
Esa pared (Riff 1)que no me deja verte (Riff 2)
       Em    A7                  D          
debe caer (Riff 2)por obra del amor
       Em   A7                     D
esa pared (Riff 1)que nos separa siempre
       Em     A7                 D
debe caer, (Riff 2)debemos platicar.

     Bm                                       E7
Las horas que pensando estoy en ti se hacen eternas (Riff 3)
     Bm                                           E7
cómo es posible que tú ni comprendas cuánto te quiero.
          G              D   A7
Y mi corazón será tan feliz
            D  G             D  G             D
si tú eres mía,  si tú eres mía,  si tú eres mía.

       Em   A7                    D
Esa pared (Riff 1)que no me deja verte
       Em   A7                   D
debe caer (Riff 2)por obra del amor
          Em    A7                    D
LA-ra-ra-ra, (Riff 1)  LA-ra-ra-ra-ra-ra-ra
          Em                         D
LA-ra-ra-ra, (Riff 2)   LA-ra-ra-ra-ra-ra-ra

     Bm                                       E7
Las horas que pensando estoy en ti se hacen eternas (Riff 3)
     Bm                                           E7
cómo es posible que tú ni comprendas cuánto te quiero.
          G              D   A7
Y mi corazón será tan feliz
            D  G             D  G             D
si tú eres mía,  si tú eres mía,  si tú eres mía.
Calificar esta versión:
Aviso: Este fichero es trabajo propio de su transcriptor y representa su interpretación personal de la canción. El material contenido en esta página es para exclusivo uso privado, por lo que se prohibe su reproducción o retransmisión, así como su uso para fines comerciales.
Más versiones de Esa Pared, Leo Dan
Esa Pared
acordes
Esa Pared
tablatura
Esa Pared (ver 2)
tablatura
Descubre más canciones de Leo Dan