El Bandido Saltó De Mata, La Vela Puerca (tablatura)

Autor: Anónimo | 35928 visualizaciones



1:45

Base: Lam-Sol-Fa-Mim

E|--------------------------|-------------10--------------------
B|----8h10---------------8--|--10-12-13-12--13-12-10-----8-8h10-
G|-7h9-----10-10/9-9-7-9--9-|-9---------------------10-9--------
D|--------------------------|-----------------------------------
A|--------------------------|-----------------------------------
E|--------------------------|-----------------------------------

E----------|------10b--13-12-----------------------|
B-----8-8--|-12-13-----------13-12-12/10--8--8-8h10|
G-7h9----9-|--------------------------------9------|
D----------|---------------------------------------|
A----------|---------------------------------------|
E----------|---------------------------------------|

E|----------------|-----------------|
B|-----8-8--------|-------------8---|
G|-7h9----9-7-7h9-|-10-9-9-7-7h9--9-|
D|----------------|-----------------|
A|----------------|-----------------|
E|----------------|-----------------|



Cualquier consulta:
[email protected]
fotolog.com/arsenalfc_ds

Salute!





Calificar esta versión:
Aviso: Este fichero es trabajo propio de su transcriptor y representa su interpretación personal de la canción. El material contenido en esta página es para exclusivo uso privado, por lo que se prohibe su reproducción o retransmisión, así como su uso para fines comerciales.
Más versiones de El Bandido Saltó De Mata, La Vela Puerca
El Bandido Salto De Mata
acordes
El Bandido Saltó De Mata
tablatura
El Bandido Saltó De Mata
bajo
Descubre más canciones de La Vela Puerca