El Bandido Saltó De Mata, La Vela Puerca (bajo)

Autor: Anónimo | 41118 visualizaciones



INTRO
REPITE ESTO

G|--2----2--0---0--2----2—-0---0-|
D|----2--------2------2------2---|  ESTA ES LA BASE DE TODA
A|-------------------------------|  LA CANCION
E|-------------------------------|

CUANDO SE CALLAN LOS VIENTOS Y VA A EMPEZAR A CANTAR HACE

G|--0---0---0--|
D|----2---2----|  y vuelve a repetir lo del principio
A|-------------|
E|-------------|

Las estrofas la toca igual que la INTRO y la última
vuelta cuando termina la estrofa hace

G|--2-0--0--0—0-|
D|--------------|
A|--------------|
E|--------------|


Tené cuidado porque te mata
Es el bandido saltodemata
Si me lo encuentro yo en esa esquina
Salgo corriendo por la avenida.
(aca hace un adorno y vulve a la base)

Y si te pesca dándole cuerda
O ayudando a la gente enferma
Te va a dar palo hasta que se borre
todo ese rollo sobre los pobres.
(aca hace un adorno y vulve a la base)

Cuando entran los vientos hace

G|----—---0--2--0--------0--2-|
D|--3--2-----------3--2-------|
A|----------------------------|
E|----------------------------|


Llego del norte dándole lata
Es el bandido saltodemata
Toda la gente tiembla de miedo
Cuando aparece con su sombrero
(aca hace un adorno y vulve a la base)

Latinoamérica de colores
Yo mas me acerco y mas huelo olores.
Latinoamérica confundida por los caminos llenos de vida.
(aca hace un adorno y vulve a la base)

Cuando entran los vientos hace

G|----—---0--2--0--------0--2-|
D|--3--2-----------3--2-------|
A|----------------------------|
E|----------------------------|

Cuando entra la Guitarra cambia la base y la repite

G|----2—--0------2------------|
D|--2---3---3--2--------------|
A|----------------------------|
E|----------------------------|

Vuelve a la base con los cambios al final de los versos

Si un latino se esconde me dicen  adonde para que lo pueda traer.
Y si el bandido aparece la gente enloquece no seas el primero en caer.
Gente bien gente humilde cansada de palo no vamo a dejarno arrastrar.
No te asustes mujer no te ponga a correr vida mía esto va a terminar.

Cuando entran los vientos hace

G|----—---0--2—2--0--2--|
D|--3--2----------------|
A|----------------------|
E|----------------------|





Calificar esta versión:
Aviso: Este fichero es trabajo propio de su transcriptor y representa su interpretación personal de la canción. El material contenido en esta página es para exclusivo uso privado, por lo que se prohibe su reproducción o retransmisión, así como su uso para fines comerciales.
Más versiones de El Bandido Saltó De Mata, La Vela Puerca
El Bandido Salto De Mata
acordes
El Bandido Saltó De Mata
tablatura
El Bandido Saltó De Mata
bajo
Descubre más canciones de La Vela Puerca