Burbujas, La Vela Puerca (tablatura)

Autor: Anónimo | 28638 visualizaciones



2:53

B5-D5-E5

E-------------------5---5--------7---7---7---7---7--------
B-----3---3-----5/7---7---7--7/9---9---9---9---9----------
G-2h4---4---4---------------------------------------------
D---------------------------------------------------------


E------10----10-----------14----14-----------16----16-----
B-9/12----12----12--12/15----15----15--15/17----17----17--
G---------------------------------------------------------


E-16----16----16----19b--16-17-19-----
B----17----17---------------------17--
G-------------------------------------


E---12-10-9----------------------
B-12-------12-10-10-9-10-12------
G--------------------------9-----


E-----5--5--5---------------
B-5h7--7b-7b-7-5h7-5--------
G--------------------7-7/9--

E5-D5-C#5-E5-A5

G--9-7-6-------
D--------9-7---



Dale santi!!!!!

Cualquier consulta:
[email protected]
fotolog.com/arsenalfc_ds

Salute!





Calificar esta versión:
Aviso: Este fichero es trabajo propio de su transcriptor y representa su interpretación personal de la canción. El material contenido en esta página es para exclusivo uso privado, por lo que se prohibe su reproducción o retransmisión, así como su uso para fines comerciales.
Más versiones de Burbujas, La Vela Puerca
Burbujas
acordes
Burbujas
tablatura
Burbujas
bajo
Burbujas
armonica
Descubre más canciones de La Vela Puerca