Burbujas, La Vela Puerca (bajo)

Autor: Anónimo | 28303 visualizaciones



Intro 
                  x2 
G|------------------|------------------|---------------|
D|------------------|---------------77-|-------------.-|
A|-7---5---7---55---|-7---5---7---5----|-7---5---7---5-|
E|---7---5---7----5-|---7---5---7------|---7---5---7---|

Verso  
                                                x3 
G|-----------------|-----------------|------------|---------|
D|---------------4-|-----------------|---------77-|---------|
A|-7---5---7---5---|-7---5---7---5---|-7---7-5----|-7---5---|
E|---7---5---7-----|---7---5---7---5-|---7--------|---7---7-|

Coro (...Solo te preocupa lo que quieras ver...)

G|-------------|-----------------| |----------------|
D|-----------7-|-----------------| |----------------|
A|-----4-5-7---|-----4-5-5-4-7---| |----5--4--------|
E|-5-5---------|-5-5-----------7-| |----------5-----|
                                   |...y no ves...| 

G|-------------|---------------|-----------------|
D|-----------7-|---------------|-----------------|
A|-----4-5-7---|-----4-5-5-4---|-----4-5-5-4-----|
E|-5-5---------|-5-5---------5-|-5-5---------7-7-|

G|--------|    Verso x1
D|--------|    Coro  x1 
A|--5--4--|
E|--------|

Segundo Coro (...una aguja va conmigo...)
                   x4
G|----------------------|--------|
D|----------------------|--------|   Intro x1
A|-------555-5/77777777-|--5--4--|   Verso x1
E|-777-5----------------|--------|   Coro  x1

                      x2                              x2
G|----------------------|--------|----------------------|
D|----------------------|--------|----------------------|
A|-------555-5/77777777-|--5--4--|-------555-5/77777777-|
E|-777-5----------------|--------|-777-5----------------|

Solo de guitarra
                      x4   
G|----------------------|-----------|
D|----------------------|-----------|
A|-------555-5/77777777-|-7-5-4-----|
E|-777-5----------------|-------7-5-|

Coro x3 (varia bastante)

G|-------------|----------------|------------------|
D|-------------|---------4------|------------------|
A|--44-5-4-----|--44-545---7777-|-7---7---55-4-----|
E|55--5----7-5-|-55-5-----------|---7---7------7-5-|

Final
                 x3                                x2
G|-----------------|-----------------|---------------|--------------------|
D|-----------------|-----------------|---------------|-----------5-7-/19~-|
A|---------5-4-2---|---------55x5-77-|---------5-4-2-|--------------------|
E|-5-4-2-4-------5-|-5-4-2-4---------|-5-4-2-4-------|--------------------|

Fuente original: LaCuerda
Colaborador original: Nicolas [[email protected]]





Calificar esta versión:
Aviso: Este fichero es trabajo propio de su transcriptor y representa su interpretación personal de la canción. El material contenido en esta página es para exclusivo uso privado, por lo que se prohibe su reproducción o retransmisión, así como su uso para fines comerciales.
Más versiones de Burbujas, La Vela Puerca
Burbujas
acordes
Burbujas
tablatura
Burbujas
bajo
Burbujas
armonica
Descubre más canciones de La Vela Puerca