Te Quiero Comer La Boca, La Mosca Tse-tse (tablatura)

Autor: Anónimo | 39489 visualizaciones

intro:
   G         C        A  D     G             C       A  D   G           C        A D 
e||-10---8---10-8----|-----|-10-10-10-10-8---10-8---|-----|-13---12---13-12-----|----||
B||--------------10--|-----|----------------------10|-----|-15---13---15-13-13--|----||
G||------------------|-----|------------------------|-----|-----------------14--|----||
D||------------------|-----|------------------------|-----|---------------------|----||
A||------------------|-----|------------------------|-----|---------------------|----||
E||------------------|-----|------------------------|-----1---------------------|----||

  
e||-10-10-10-10-8-----------------------||
B||-11-11-11-11-10--11-10-11-10---------||
G||-----------------12-10-12-10---------||
D||-------------------------------------||
A||-------------------------------------||
E||-------------------------------------||

F                             Dm
He planeado tantas noches esta noche
G                            C
he pensado tantas veces que decir
F              Dm            G
encontrar la manera mas sensata
C             G  
y poderte seducir.




F Dm G C Pero cuando me miras con esos ojos pero cuando te paras cerca de mi mi pobre corazon se vuelve loco y ya no puedo seguir. G C Te quiero comer la boca A D te quiero comer la boca G C te quiero comer la boca F Dm sin dejar de respirar. E C Yo te quiero comer la boca F D te quiero comer la boca sin dejar de respirar. intro No confies en mis buenas intenciones no pretendas que controle mi pasion es muy fuerte lo que pasa por mi mente los besos mas indecentes son los que te quiero dar. Y morirme si es que tu mano me toca si pudieras solamente imaginar que mis venas se convierten en un rio quiero comerte la boca sin dejar de rspirar. Te quiero comer la boca... Louro´02
Calificar esta versión:
Aviso: Este fichero es trabajo propio de su transcriptor y representa su interpretación personal de la canción. El material contenido en esta página es para exclusivo uso privado, por lo que se prohibe su reproducción o retransmisión, así como su uso para fines comerciales.
Más versiones de Te Quiero Comer La Boca, La Mosca Tse-tse
Te Quiero Comer La Boca
acordes
Te Quiero Comer La Boca (ver 2)
acordes
Te Quiero Comer La Boca
tablatura
Te Quiero Comer La Boca
bajo
Descubre más canciones de La Mosca Tse-tse