Te Quiero Comer La Boca, La Mosca Tse-tse (bajo)

Autor: Anónimo | 26875 visualizaciones

Intro x1
|----------------|----------------|----------------|----------------|
|------------5---|----------------|------------5---|--------3-3-2---|
|-------53-3---3-|--------3-4-5---|-------53-3---3-|-------3------3-|
|3---3-----------|5---5--5--------|3---3-----------|1---1-----------|

|----------------|----------------|----------------|----------------|
|------------5---|----------------|------------5---|----------------|
|-------53-3---3-|--------3-4-5---|-------53-3---3-|----------------|
|3---3-----------|5---5--5--------|3---3-----------|1-----/13------|

Verso x2 
|----------------|----------------|----------------|----------------|
|------------7---|----------------|------------7---|----------------|
|----------5---5-|--------1-2-3---|----------5---5-|--------1-2-3---|
|1---1-----------|3---3--3--------|1---1-----------|3---3--3--------|

|----------------|----------------|----------------|----------------|
|------------7---|------------5---|------------7---|----3-------5---|
|----------5---5-|-------53-3---3-|----3-----5---5-|1-1---1-3-3---3-|
|1---1-----------|3---3-----------|1-1---1---------|----------------|

Estribillo x1
|----------------|----------------|----------------|----------------|
|------------5---|----------------|------------5---|--------3-3-2---|
|----------3---3-|--------3-4-5---|----------3---3-|-------3------3-|
|3---3-----------|5---5--5--------|3---3-----------|1---1-----------|
  
|----------------|----------------|----------------|----------------|
|------------5---|----------------|------------5---|--------3-3-2---|
|----------3---3-|--------3-4-5---|----------3---3-|-------3------3-|
|3---3-----------|5---5--5--------|3---3-----------|1---1-----------|

Pre verso es igual a la intro x1
Verso x2
Estribillo x1
Solo x1
|----------------|----------------|----------------|----------------|
|------------5---|----------------|------------5---|--------3-3-2---|
|--------3-3---3-|--------3-4-5---|--------3-3---3-|-------3------3-|
|3---3-----------|5---5--5--------|3---3-----------|1---1-----------|

|----------------|----------------|----------------|-----------------|
|------------5---|----------------|------------5---|-----------------|
|--------3-3---3-|--------3-4-5---|--------3-3---3-|-----------------|
|3---3-----------|5---5--5--------|3---3-----------|1---1--1/131313--|

Estribillo x1
Final x1
|----------------|----------------|----------------|----------------|
|------------5---|----------------|------------5---|--------3-3-2---|
|-------53-3---3-|--------3-4-5---|-------53-3---3-|-------3------3-|
|3---3-----------|5---5--5--------|3---3-----------|1---1-----------|

|----------------|----------------|----------------|----------------|
|------------5---|----------------|------------5---|----------------|
|-------53-3---3-|--------3-4-5---|-------53-3---3-|----------------|
|3---3-----------|5---5--5--------|3---3-----------|1--1--1---------|
Calificar esta versión:
Aviso: Este fichero es trabajo propio de su transcriptor y representa su interpretación personal de la canción. El material contenido en esta página es para exclusivo uso privado, por lo que se prohibe su reproducción o retransmisión, así como su uso para fines comerciales.
Más versiones de Te Quiero Comer La Boca, La Mosca Tse-tse
Te Quiero Comer La Boca
acordes
Te Quiero Comer La Boca (ver 2)
acordes
Te Quiero Comer La Boca
tablatura
Te Quiero Comer La Boca
bajo
Descubre más canciones de La Mosca Tse-tse