Arde La Ciudad, La Mancha De Rolando (tablatura) (ver 3)

Autor: juan imas | 36037 visualizaciones

--------------------------------------------------------------
------1-------------------1-----------------------------------
--------0-------------------2---------------------------------
---2------2-----0-------2-----2---3-2-0-3--2-0----------------
-3-----------2-3------0---------------------------------------
------------------3-------------------------------------------
      Do                          La


--------------------------------------------------------------
------1---------------0-------------1-----1-----1-------------
---------0---0----------0---0---------2-----2-----2---2-------
---2-------2--------0-----0-------3-----3-----3-----3---------
-3----------------2-------------3-----------------------------
--------------------------------------------------------------
      Do              Sol          Fa   

Comentarios del colaborador: Esta cancion la dejo xq en ningun otro sitio de internet la encontre, la tienen pero esta mal!, no me gusto como suena. Espero q les guste esta cancion como la saque =D.

Calificar esta versión:
Aviso: Este fichero es trabajo propio de su transcriptor y representa su interpretación personal de la canción. El material contenido en esta página es para exclusivo uso privado, por lo que se prohibe su reproducción o retransmisión, así como su uso para fines comerciales.
Más versiones de Arde La Ciudad, La Mancha De Rolando
Arde La Ciudad
acordes
Arde La Ciudad (ver 2)
acordes
Arde La Ciudad (ver 3)
acordes
Arde La Ciudad (ver 4)
acordes
Arde La Ciudad (ver 5)
acordes
Arde La Ciudad (ver 6)
acordes
Arde La Ciudad (ver 7)
acordes
Arde La Ciudad (ver 8)
acordes
Arde La Ciudad
tablatura
Arde La Ciudad (ver 2)
tablatura
Arde La Ciudad (ver 3)
tablatura
Arde La Ciudad
bajo
Arde La Ciudad (ver 2)
bajo
Descubre más canciones de La Mancha De Rolando