Arde La Ciudad, La Mancha De Rolando (bajo) (ver 2)

Autor: pablo066 | 23921 visualizaciones

Intro:

G|-----------------------------------------------------|
D|--------0-----3-2-0-3-2-0-------0--------------------|
A|--3-2-3-----0-------------3-2-3----------------------|
E|----------3-----------------------3-1----------------|

Voz

G|-----------------------------------------------------|
D|-----------------------------------------------------|x5
A|-3-3-----1-1-1-1-------------------------------------|
E|-----3-3---------------------------------------------|

G|-----------------------------------------------------|
D|--------0-----3-2-0-3-2-0-------0--------------------|x2
A|--3-2-3-----0-------------3-2-3----------------------|
E|----------3-----------------------3-1----------------|


G|-----------------------------------------------------|
D|-----------------------------------------------------|x6
A|-3-3-----1-1-1-1-------------------------------------|
E|-----3-3---------------------------------------------|

G|-----------------------------------------------------|
D|--------0-----3-2-0-3-2-0-------0--------------------|
A|--3-2-3-----0-------------3-2-3----------------------|
E|----------3-----------------------3-1----------------|
solo
G|-----------------------------------------------------|
D|-----------------------------------------------------|x5
A|-3-3-----1-1-1-1-------------------------------------|
E|-----3-3---------------------------------------------|


G|-----------------------------------------------------|
D|--------0-----3-2-0-3-2-0-------0--------------------|x4
A|--3-2-3-----0-------------3-2-3--------3-------------|
E|----------3-----------------------3-1----------------|
Calificar esta versión:
Aviso: Este fichero es trabajo propio de su transcriptor y representa su interpretación personal de la canción. El material contenido en esta página es para exclusivo uso privado, por lo que se prohibe su reproducción o retransmisión, así como su uso para fines comerciales.
Más versiones de Arde La Ciudad, La Mancha De Rolando
Arde La Ciudad
acordes
Arde La Ciudad (ver 2)
acordes
Arde La Ciudad (ver 3)
acordes
Arde La Ciudad (ver 4)
acordes
Arde La Ciudad (ver 5)
acordes
Arde La Ciudad (ver 6)
acordes
Arde La Ciudad (ver 7)
acordes
Arde La Ciudad (ver 8)
acordes
Arde La Ciudad
tablatura
Arde La Ciudad (ver 2)
tablatura
Arde La Ciudad (ver 3)
tablatura
Arde La Ciudad
bajo
Arde La Ciudad (ver 2)
bajo
Descubre más canciones de La Mancha De Rolando