No Puedo Verte, La Gusana Ciega (tablatura)

Autor: kenpachi | 28979 visualizaciones

Intro:

      (Bm)  se repite dos veces        G riff:1
E-------------------------------   ------------------------------
B-------------------------------   ------------------------------
G-------------------------------   ------------------------------
D-----------------------------2-   ------------------------------
A--2222-0-2222-0-2222-0-2-4-5---   --------------------------2-4-
E-------------------------------   --3333-0-3333-0-3333-0-3-5----


Bm                        G riff:1
Hay cosas que yo puedo perdonar,

Bm                             G fiff:1
pero hay cosas que tu tienes que explicar,

Bm                        G riff:1
porque yo siempre tengo que esperar,

         D                   E                  A
en una esquina, mientras tu bailas con alguién más.


    Bm                                 G riff:1
E--------------------------------    ----------------------------
B--------------------------------    ----------------------------
G--------------------------------    -----------------------------
D-----------------------------2--    -----------------------------
A-02222-0-2222-0-2222-0-2-4-5----    --------------------------2-4-
E--------------------------------    --3333-0-3333-0-3333-0-3-5----


Bm                     G riff:1
Yo no soy nadie para desconfiar,

Bm                       G riff:1
pero ultimamente nada ha sido igual,

Bm                      G riff:1
piensa dos veces antes de jugar,

          D                  E                   A
con mi cariño, que estoy dispuesto a hacerte llorar.


CORO:

          Bm                    E
Porque yo no, no, no, no puedo verte,

            A
con alguien más.


(Se repite una vez más)


   Bm                            G
E--------------------------------------------------------------
B-------------------------------------------------------------
G--------------------------------------------------------------
D--------------------------------------------------------------
A-0-2222-0-2222-0-2222-0-2222-0--------------------------2-4---
E--------------------------------3333-0-3333-0-3333-0-3-5-------



Bm                       G riff:1
Hay cosas que yo puedo perdonar,

Bm                         G riff:1
pero últimamente nada ha sido igual,

Bm                          G riff:1
no te sorprendas si algún día estas,

          D                E                 A
sin mi cariño, y estoy en brazos de alguién más.

CORO: x 2

Intermedio: slide *

   Em         Am           Bm       Em
E---9*10-----9*10------9*10----11*12*10-----------------
B-------------------------------------------------------
G-------------------------------------------------------
D-------------------------------------------------------
A-------------------------------------------------------
E-------------------------------------------------------

   Em            Am   Bm            Em
No quiero descubrir que te vas a ir,

   Em           Am     Bm             G        Em             A
no puedo permitir que me engañes a mí, como yo te engaño a tí.



Solo: (Bm,E,A, se repite tres veces)

CORO:x3

Final:
           Bm                 E (Pausa)
Por que yo no, no, no, quiero perderte,

Finaliza en (Bm)
por alguien más.

Comentarios del colaborador: espero que les sirva a mi si me sirvio

Calificar esta versión:
Aviso: Este fichero es trabajo propio de su transcriptor y representa su interpretación personal de la canción. El material contenido en esta página es para exclusivo uso privado, por lo que se prohibe su reproducción o retransmisión, así como su uso para fines comerciales.
Más versiones de No Puedo Verte, La Gusana Ciega
No Puedo Verte
acordes
No Puedo Verte
tablatura
No Puedo Verte
bajo
Descubre más canciones de La Gusana Ciega