No Puedo Verte, La Gusana Ciega (bajo)

Autor: Anónimo | 39786 visualizaciones

0:03

G--------------------------------
D--------------------------------
A-0-2---2-------2-------2--------
E------------3-------3-------3---

G-----------------------------------------------------
D-----------------------------------------------------
A--5555-5555-5555-5555-7777-7777-7777-7777------------
E------------------------------------------5555-5555-5


0:37
G---------------------------------------------------------------
D---------4--------------------4---------------------------4----
A-0-2---2---2---2-1----5-----2---2---2-1----5--------0-1-2---2--
E-------------------3-----3--------------3------3--5------------

-------------------
---------5---------
-2-1---------------
-----3-3----3--5--7

G-----------------------------------------------------
D-----------------------------------------------------
A--5555-5555-5555-5555-7777-7777-7777-7777------------
E------------------------------------------5555-5555-5

CORO 1:12  X 2

G-----------------------------------------------------
D-----------------------------------------------------
A---------------------7777-7777-7777-7/14/12----------
E-7777-7777-7777-7777------------------------5555-5555

G-----------------------------------------------------------
D-----------------------------------------------------------
A---------------------7777-7777-7777-7/14/12/14/12----------
E-7777-7777-7777-7777------------------------------5555-5555

1:33

G-----------------------------------------------------
D----4--------------------4----------5--4-2-0----4----
A--2---2------5-------0-2---2------5----------2-------
E-----------3---3---3----------3-3--------------------

-----------------------
---5--4-2-0-----4------
------------2-2-------5
------------------3-3--

G-----------------------------------------------------
D-----------------------------------------------------
A--5555-5555-5555-5555-7777-7777-7777-7777------------
E------------------------------------------5555-5555-5

CORO 2:10  X 2

G-----------------------------------------------------
D-----------------------------------------------------
A---------------------7777-7777-7777-7/14/12----------
E-7777-7777-7777-7777------------------------5555-5555

G-----------------------------------------------------------
D-----------------------------------------------------------
A---------------------7777-7777-7777-7/14/12/14/12----------
E-7777-7777-7777-7777------------------------------5555-5555

2:40

G----------------------------------------
D----------------------------------------
A----------------------------------------
E--0--5--7--3--0---5--7--3--0---555555555


SOLO 2:59 SE TOKA  (B, E, A) X 3


FINAL 3:31 se repite el coro X 3 (en la tercera c acaba en mi)

ESTA ROLA VA DEDICADA PARA APARTADOS!! LA MEJOR BANDA
SI ALGUIEN TIENE UNA CANCION DE APARTADOS MANDEMELA OK!! ;)
APARTADOS ES LA MAMADA!!!!!!
(ROCK MATA A PUNK) LARGA VIDA AL ROCK!!!
SE ACEPTAN CORRECIONES PARA ESTE TAB, YA K ALOMEJOR SE ME PASO
ALGO POR K TRAIA MUCHA GUEVA CUANDO LA SAKE
PERO PS ES EL UNICO TAB PARA BAJO K HAY ASI K SOLO LES KEDA DARME
LAS GRACIAS.
NO DEJEN DE ESCUCHAR A APARTADOS  OK!!!! BYE
Calificar esta versión:
Aviso: Este fichero es trabajo propio de su transcriptor y representa su interpretación personal de la canción. El material contenido en esta página es para exclusivo uso privado, por lo que se prohibe su reproducción o retransmisión, así como su uso para fines comerciales.
Más versiones de No Puedo Verte, La Gusana Ciega
No Puedo Verte
acordes
No Puedo Verte
tablatura
No Puedo Verte
bajo
Descubre más canciones de La Gusana Ciega