No Me Tientes, La Gusana Ciega (tablatura)

Autor: Anónimo | 39112 visualizaciones


                   Am                           Em                 Am              Em
 E------------------0----------------------------0-----------------0----------------0----
 B------------------1----------------------------0-----------------1----------------0----
 G------------------2----------------------------0-----------------2----------------0----
 D------------------2----------------------------2-----------------2----------------2----
 A------------------0----------------------------2-----------------0----------------2----
 E------------------0----------------------------0-----------------0----------------0----

    SI       ENCONTRARAS    QUE         ESTA     VIDA     NO   TE  SIRVE     MAS    AQUI
    SI         BUSCARAS         UNA            FORMA       DE      SALIR
    NO     TE    OLVIDES          QUE    MI  CORAZON             ESTA      DENTRO  DE TI
    SI    TE    PIERDES      YO       TE       BUSCO   SI   TU    SALTAS    YO    TAMBIEN  PERO...


                    G                            Bm                         
 E------------------3----------------------------2----------------  
 B------------------3----------------------------3----------------     
 G------------------4----------------------------4----------------        
 D------------------5----------------------------4----------------      X 2    
 A------------------5----------------------------2----------------          
 E------------------3----------------------------X----------------
                         NO           ME       TIENTES,  

                    G                            Bm                   D                             Em
 E------------------3----------------------------2--------------------3-----------------------------0---  
 B------------------3----------------------------3--------------------2-----------------------------0---     
 G------------------4----------------------------4--------------------3-----------------------------0---        
 D------------------5----------------------------4--------------------0-----------------------------2---          
 A------------------5----------------------------2--------------------0-----------------------------2---          
 E------------------3----------------------------X--------------------0-----------------------------0---

                            NO        ME         INVITES      A       MORIR       JUNTO  A         TI


 


                   Am                           Em                 Am              Em
 E------------------0----------------------------0-----------------0----------------0----
 B------------------1----------------------------0-----------------1----------------0----
 G------------------2----------------------------0-----------------2----------------0----
 D------------------2----------------------------2-----------------2----------------2----
 A------------------0----------------------------2-----------------0----------------2----
 E------------------0----------------------------0-----------------0----------------0----

           SI   TUVIERAS           QUE         MORIR           NO  PODRIAS    DEJARME AQUI
           COMO  SOMBRA      DE      TU      ALMA       COMO     ESPEJO      DE  TU  PIEL

 


                    G                            Bm                         
 E------------------3----------------------------2----------------  
 B------------------3----------------------------3----------------     
 G------------------4----------------------------4----------------        
 D------------------5----------------------------4----------------      X 2    
 A------------------5----------------------------2----------------          
 E------------------3----------------------------X----------------
                         NO          ME       TIENTES
                    G                            Bm                   D                             Em
 E------------------3----------------------------2--------------------3-----------------------------0---  
 B------------------3----------------------------3--------------------2-----------------------------0---     
 G------------------4----------------------------4--------------------3-----------------------------0---        
 D------------------5----------------------------4--------------------0-----------------------------2---          
 A------------------5----------------------------2--------------------0-----------------------------2---          
 E------------------3----------------------------X--------------------0-----------------------------0---

                            NO        ME         INVITES      A       MORIR       JUNTO  A         TI





                    Am                           D                 G                G6
 E------------------0----------------------------2-----------------3----------------3-
 B------------------1----------------------------3-----------------3----------------3-
 G------------------2----------------------------2-----------------0----------------0-  X 3
 D------------------2----------------------------0-----------------0----------------0- 
 A------------------0----------------------------0-----------------2----------------0-
 E------------------0----------------------------0-----------------3----------------3-               
                    UH    UH             UH         UH                UH            UH 


                    G                SOLO
 E------------------3--3-3-3-3-3-3-----------------------------------------------------
 B------------------3--3-3-3-3-3-3----------------------------------------------------
 G------------------0--0-0-0-0-0-0----------------------------------------------------  
 D------------------0--0-0-0-0-0-0---------------------------------------------------- 
 A------------------2--2-2-2-2-2-2-------------7--77--5--77-5---7-5-7-5--7------------
 E------------------3--3-3-3-3-3-3----------------------------------------------------
                   AHHHHHH..            


 E-----------------------------------------------------------------------------------
 B-----------------------------------------------------------------------------------
 G-----------------------------------------------------------------------------------  
 D---5--77-5--77-5-77-5--7--9-7--5----------------------777-5-777-5-777-5--7--9--7-5- 
 A---------------------------------77-5--77-5-7-5-7-5-7------------------------------
 E-----------------------------------------------------------------------------------

 E-----------------------  
 B-----------------------     
 G-----------------------        
 D-----------------------          
 A--5--77--5--77--5--77--         
 E-----------------------
                         



                    G                            Bm                         
 E------------------3----------------------------2----------------  
 B------------------3----------------------------3----------------     
 G------------------4----------------------------4----------------        
 D------------------5----------------------------4----------------      X 2    
 A------------------5----------------------------2----------------          
 E------------------3----------------------------X----------------
                        
                            NO          ME       TIENTES
                    G                            Bm                   D                             Em
 E------------------3----------------------------2--------------------3-----------------------------0---  
 B------------------3----------------------------3--------------------2-----------------------------0---     
 G------------------4----------------------------4--------------------3-----------------------------0---        
 D------------------5----------------------------4--------------------0-----------------------------2---          
 A------------------5----------------------------2--------------------0-----------------------------2---          
 E------------------3----------------------------X--------------------0-----------------------------0---

                            NO        ME         INVITES      A       MORIR       JUNTO  A         TI


                    Am                          Em                Am               Em
 E------------------0----------------------------0-----------------0----------------0----
 B------------------1----------------------------0-----------------1----------------0----
 G------------------2----------------------------0-----------------2----------------0----
 D------------------2----------------------------2-----------------2----------------2----
 A------------------0----------------------------2-----------------0----------------2----
 E------------------0----------------------------0-----------------0----------------0----

    SI       ENCONTRARAS    QUE         ESTA     VIDA     NO   TE  SIRVE     MAS    AQUI
    SI         BUSCARAS         UNA            FORMA       DE      SALIR
    NO     TE    OLVIDES          QUE    MI  CORAZON             ESTA      DENTRO  DE TI
    SI    TE    PIERDES      YO       TE       BUSCO   SI   TU    SALTAS    YO    TAMBIEN  PERO...


 


                    G                            Bm                         
 E------------------3----------------------------2----------------  
 B------------------3----------------------------3----------------     
 G------------------4----------------------------4----------------        
 D------------------5----------------------------4----------------      X 2    
 A------------------5----------------------------2----------------          
 E------------------3----------------------------X----------------
                         NO      ME             TIENTES


                    G                            Bm                   D                            
 E------------------3----------------------------2--------------------3-------- 
 B------------------3----------------------------3--------------------2--------     
 G------------------4----------------------------4--------------------3--------       
 D------------------5----------------------------4--------------------0--------          
 A------------------5----------------------------2--------------------0--------          
 E------------------3----------------------------X--------------------0--------

                            NO        ME         INVITES      A       MORIR     

 


                    G                            Bm                         
 E------------------3----------------------------2----------------  
 B------------------3----------------------------3----------------     
 G------------------4----------------------------4----------------        
 D------------------5----------------------------4----------------      X2
 A------------------5----------------------------2----------------          
 E------------------3----------------------------X----------------
                         NO            ME     TIENTES
 

                    G                            Bm                   D                             Em
 E------------------3----------------------------2--------------------3-----------------------------0---  
 B------------------3----------------------------3--------------------2-----------------------------0---     
 G------------------4----------------------------4--------------------3-----------------------------0---        
 D------------------5----------------------------4--------------------0-----------------------------2---          
 A------------------5----------------------------2--------------------0-----------------------------2---          
 E------------------3----------------------------X--------------------0-----------------------------0---

                            NO        ME         INVITES      A       MORIR       JUNTO  A         TI.
Calificar esta versión:
Aviso: Este fichero es trabajo propio de su transcriptor y representa su interpretación personal de la canción. El material contenido en esta página es para exclusivo uso privado, por lo que se prohibe su reproducción o retransmisión, así como su uso para fines comerciales.
Más versiones de No Me Tientes, La Gusana Ciega
No Me Tientes
acordes
No Me Tientes (ver 2)
acordes
No Me Tientes
tablatura
Descubre más canciones de La Gusana Ciega