No Me Tientes, La Gusana Ciega (acordes)

Autor: Anónimo | 19644 visualizaciones

aamasus2bmdemg
   Am                   Em
Si encontraras que esta vida no te
  Am       Em        Am          Em         Am   Em
sirve mas a ti, y buscaras una forma de salir,
       Am            Em       Am        Em
no te olvides que mi corazón está dentro de ti,
         Am         Em        Am             Em
si te pierdes yo te busco, si tu saltas yo también pero


Arreglo
Am            Em
-------------------------
--1p0--------------------
--------2p0--------------
--------------0h2--------
-------------------------
-0-----------------------
----------------0--------

   CORO:

  G       Bm      G    Bm       G       Bm       D        Em
No me tientes, no me tientes, no me invites a morir junto a ti

   Am         Em
Si tuvieras que morir
no podrías dejarme aquí,
como sombra de tu alma,
como espejo de tu piel.


  G       Bm      G    Bm       G       Bm       D        FILL1
No me tientes, no me tientes, no me invites a morir ....

HUUUUUU HU  HUUUUUUU
    Asus2    F#/D     G       A
---------------------------------------
---------------------------------------
---------------------------------------
-------2-------------------------------
-----2---2------0----------------------
---0----------0---0------0--2-OH2--0---
------------2---------3----------------





INTERLUDE
  Em            Am                     Em                    Am
--------------------------------------------------------------------
--------------------------------------------------------------------
-7/-9--7--9-7-9------------------------9-7-9-7----------------------
----------------5h-7-5h7-5h7-5-7-9-7-5----------------------5-7-5-7-
-5/-7--5--7-5-7------------------------7-5-7-5--------5-6-7---------
------------------------------------------------5-6-7---------------

G       Bm      G    Bm       G       Bm       D        Em
No me tientes, no me tientes, no me invites a morir junto a ti


Am                   Em
Si encontraras que esta vida no te
  Am       Em        Am          Em         Am   Em
sirve mas a ti, y buscaras una forma de salir,
       Am            Em       Am        Em
no te olvides que mi corazón está dentro de ti,
         Am         Em        Am             Em
si te pierdes yo te busco, si tu saltas yo también pero


  CORO:

G       Bm      G    Bm       G       Bm       D
No me tientes, no me tientes, no me invites a morir
G       Bm      G    Bm       G       Bm       D        Em
No me tientes, no me tientes, no me invites a morir junto a ti
Calificar esta versión:
Aviso: Este fichero es trabajo propio de su transcriptor y representa su interpretación personal de la canción. El material contenido en esta página es para exclusivo uso privado, por lo que se prohibe su reproducción o retransmisión, así como su uso para fines comerciales.
Más versiones de No Me Tientes, La Gusana Ciega
No Me Tientes
acordes
No Me Tientes (ver 2)
acordes
No Me Tientes
tablatura
Descubre más canciones de La Gusana Ciega