Giroscopio, La Gusana Ciega (tablatura) (ver 2)

Autor: Anónimo | 15738 visualizaciones

ESTE ES EL REKINTO QUE SE TOCA AL PRINCIPIO DE LA CANCION 

----------------------------------------------
----------------------------------------------
----------------------------------------------
-----0--0-5-4---------------------------------
--------------0-5-5-5/7-7-5-------------------
----------------------------7/8---678678678---

EN EL CORO SOLO SE HACE UNA PEQUEÑA ESCALA

------------------------------------------------
------------------------------------------------
------------------------------------------------
-----0--0-5-4--------------------------345------
--------------0-5-5-5/7-7-5---------345---------
----------------------------7/8--345------------

SOLO

-----------------------------------------------------------------------------------------------------
-----------14-12-------------------------------------------------------------------------------------
------14-16------------------------------------------------------------------------------------------
-12/14--------12/14br/16br/14br-12/14br/16br/14br/12--14/18br/16br/14-16/18br-16-14-------------16br-
-----------------------------------------------------------------------------------16-14-14/16br-----
-----------------------------------------------------------------------------------------------------
-----------------------------------------------------------------------------------------------------


-----------------------------------------------------------------------------------------------------
-----------14-12-------------------------------------------------------------------------------------
------14-16------------------------------------------------------------------------------------------
-12/14--------12/14br/16br/14br-12/14br/16br/14br/12--14/18br/16--14-------------16br----------------
--------------------------------------------------------------------16-14-14/16br--------------------
-----------------------------------------------------------------------------------------------------
-----------------------------------------------------------------------------------------------------



bueno la rola esta algo complicada y los acordes que puso aldo guzman (que por cierto no da flogera
sacarla pero a los verdaderos gusananos no gustan las cosas bien echas y la tuya esta ....)bueno
los acordes del rekinto, del coro y del solo son:

D  G  C Em

los acordes de los versos  no los tengo bien el dany los toca medio raro y creeo ke nadie los tiene
bien siganle dando a la rola cualcuier comentario a palanqueta@msn.com
Calificar esta versión:
Aviso: Este fichero es trabajo propio de su transcriptor y representa su interpretación personal de la canción. El material contenido en esta página es para exclusivo uso privado, por lo que se prohibe su reproducción o retransmisión, así como su uso para fines comerciales.
Más versiones de Giroscopio, La Gusana Ciega
Giroscopio
acordes
Giroscopio
tablatura
Giroscopio (ver 2)
tablatura
Descubre más canciones de La Gusana Ciega