Giroscopio, La Gusana Ciega (tablatura)

Autor: Anónimo | 42788 visualizaciones

  INTRO:

  GUITARRA 1 D - Dsus2 - Dsus4 - Dsus2 - D ---x2

e-------------------------------------------------
B-------------------------------------------------
G-------------------------------------------------
D---0-0-5-4--7------------------------------------
A--------------5-5/7-7-5--3-2---------------------
E--------------------------------0-3-3--2-3-3-0---
                              *ESTA PARTE VA RAPIDO*

LA GUITARRA 2 EN LOS VERSOS TOCA RE EN EL TRASTE 10

E--10
B--10   ---- ESTO VA PUNTEADO VARIAS VECES 
G--11 

LUEGO DONDE DICE:

El lunes buscas , el martes mientes , el jueves te encuentro
e---10------------10---------------
B---10------------12---------------  -- PUNTEANDO MAS RAPIDO
G---11------------12---------------

CORO GUITARRA 2(D-G-C-Em)

Giramos al rededor       Viviendo nuestro temor

-------------------------------------------------------
-------------------------------------------------------
-------------------------------------------------------
---0-5-4--7-------------------------------------------0
------------5--5---------5-5/7--7--5-3-2-------0-2-4-5-
------------------------------------------0-2-3--------
                                            *rapido*

Giramos al rededor      y Nunca tocamos el sol
-------------------------------------------------------
-------------------------------------------------------
-------------------------------------------------------
---0-5-4--7--------------------------------------------
-------------5-----------5-5/7--7--5-3-2---------------
-------------------------------------------2-3-3-2-3-3-
                                             *rapido*


 -verso-

 -coro- x 2igual que arriba

  luego dice:

 Miramos al rededor      un giroscopio de tentacion
-------------------------------------------------------
-------------------------------------------------------
-------------------------------------------------------
---0-5-4--7--------------2-0---------------------------
------------2----------------3-5-5-3-2-2---------------
-------------------------------------------2-3-3-2-3-3-
                                             *rapido*

luego ahi un pequeño interludio en re , resus2 ,etc

 -solo-

e--------10-10/12-10-----------------------------------------------   
B------10----------------------------------------------------------
G--9/11-------------11-11-9--7-9-11-9-7--11/12-11--11/12-11-----9-7
D------------------------------------------------12--------7-7/9---
A------------------------------------------------------------------
E------------------------------------------------------------------

e--------10-10/12-10-----------------------------------------------
B------10----------------------------------------------------------
G--9/11-------------11-11-9--7-9-11-9-8--11/12---------9-7---------
D---------------------------------------------12-7H9P7-------------
A------------------------------------------------------------------
E------------------------------------------------------------------


  LUEGO TOCA EL VERSO TOCANDO LOS ACORDES D-G-Bm-D


 -CORO-

 TERMINA CON  :  GUITARRA 1 ACORDES G-G-G-G-F#
                 GUITARRA 2 NOTAS   G-G-G-G-F#

 GRACIAS
Calificar esta versión:
Aviso: Este fichero es trabajo propio de su transcriptor y representa su interpretación personal de la canción. El material contenido en esta página es para exclusivo uso privado, por lo que se prohibe su reproducción o retransmisión, así como su uso para fines comerciales.
Más versiones de Giroscopio, La Gusana Ciega
Giroscopio
acordes
Giroscopio
tablatura
Giroscopio (ver 2)
tablatura
Descubre más canciones de La Gusana Ciega