Traicionero, La Beriso (tablatura) (ver 2)

Autor: AleCosta | 41726 visualizaciones



-------------------------------------------------------------------------------
			     No me olvides - La Beriso
-------------------------------------------------------------------------------
Tabbed by: Costa Alejandro
E-mail: alejandro.r.costa@gmail.com


			PUNTEO
		       --------


e|----------------------------------|
B|----------------------------------|
G|-12^13-13-13--12-13-15--13-15-17--|
D|----------------------------------|
A|----------------------------------|
E|----------------------------------|



e|-------------------------------------------------------|
B|-------------------------------------------------------|
G|17-17-17-17-17^18-17-13-13-15-15^17-17--15/17\15-13-13-|
D|-------------------------------------------------------|
A|-------------------------------------------------------|
E|-------------------------------------------------------|


								
e|---------------------------------------------------------------|
B|---------------------------------------------------------------|
G|-12-13-15-13--12/13\12----12-----------------------------------|
D|-----------------------15----15-15/13\15--11/13\11-------13^15-|
A|---------------------------------------------------15-16-------|
E|---------------------------------------------------------------|


   [   Let Ring   ]
e|-------------13-13-|
B|----------13-13-13-|
G|-------13----------|
D|-13^15-------------|
A|-------------------|
E|-------------------|




e|-13-15-16--15/16\15--13/15\13----|
B|------------------------------16-|
G|---------------------------------|
D|---------------------------------|
A|---------------------------------|
E|---------------------------------|



e|----------15-16-18--20(b)---18-16-18-16-------|
B|-15-16-18-------------------------------18-18-|
G|----------------------------------------------|
D|----------------------------------------------|
A|----------------------------------------------|
E|----------------------------------------------|


    
e|---------------16^13------------------------------------13/15\13--------|
B|----18-----13--------16^13----------13-13/15\13-----11-----------15-16--|
G|-18-18--13-13--------------15^12-15--------------12---------------------|
D|------------------------------------------------------------------------|
A|------------------------------------------------------------------------|
E|------------------------------------------------------------------------|


	b = Bending
	/ = Arrastre Ascendente
	\ = Arrastre Descendente
	^ = Ligadura
 Let Ring = Quedan sonando la o las cuerdas.

Espero que les sirva... Alejandro Costa





Calificar esta versión:
Aviso: Este fichero es trabajo propio de su transcriptor y representa su interpretación personal de la canción. El material contenido en esta página es para exclusivo uso privado, por lo que se prohibe su reproducción o retransmisión, así como su uso para fines comerciales.
Más versiones de Traicionero, La Beriso
Traicionero
tablatura
Traicionero (ver 2)
tablatura
Descubre más canciones de La Beriso