Traicionero, La Beriso (tablatura)

Autor: AleCosta | 28458 visualizaciones



-------------------------------------------------------------------------------
			     No me olvides - La Beriso
-------------------------------------------------------------------------------
Tabbed by: Costa Alejandro
E-mail: alejandro.r.costa@gmail.com


			INTRO
		      ---------


   Let Ring
e|-----------------------------------------------|
B|-------9--8--8/9\8-----------------------------|
G|------10-10--------10----------10---------5----|
D|---10-----------------10-------11---------6----|
A|-8--------------------------11----------6------|
E|--------------------------9---------9\4--------|



e|--------------------------------------------------------|
B|--------------------------------------------------------|
G|-12^13--13--13^12--12--12^10--10--10^8--8--8^6----------|
D|-------------------------------------------------6^8/10-|
A|--------------------------------------------------------|
E|--------------------------------------------------------|



e|--------------------------------------------------------|
B|--------------------------------------------------------|
G|-12^13--13--13^12--12--12^10--10--10^8--8--8^6----------|
D|-------------------------------------------------6/10---|
A|--------------------------------------------------------|
E|--------------------------------------------------------|


e|---------------------|-----------------|----------------|
B|---------------------|-----------------|----------------|
G|---------------------|-----------------|----------------|
D|-10-11-13-13-11-10-8-|-8-10-11-11-10-6-|----------------|
A|---------------------|-----------------|-6^8-6-6--3-4---|
E|---------------------|-----------------|----------------|

 	^ = Ligadura
	/  = Arrastre ascendente
	\ = Arrastre descendente

		Esta es la INTRO. En otro subo el punteo. Suerte.





Calificar esta versión:
Aviso: Este fichero es trabajo propio de su transcriptor y representa su interpretación personal de la canción. El material contenido en esta página es para exclusivo uso privado, por lo que se prohibe su reproducción o retransmisión, así como su uso para fines comerciales.
Más versiones de Traicionero, La Beriso
Traicionero
tablatura
Traicionero (ver 2)
tablatura
Descubre más canciones de La Beriso