Algo Más, La 5a. Estación (tablatura)

Autor: Anónimo | 35801 visualizaciones

Este es el solo que se escucha bajito de la cancion
en el minuto 2:46, espero este correcto, y voten si les gusto


E-------10-8----------------------------------------
B--8s10------10-8----8------------------------------
G-----------------10---10-7----7--10-10s12----------
D---------------------------10----------------------
A---------------------------------------------------
E---------------------------------------------------

E---------------------------------------------------
B---------------10--13--10s8------------------------
G--------10--12--------------10---------------------
D--10s12------------------------12---12--10---------
A----------------------------------12-------12-11-10
E---------------------------------------------------

E---------------------------------------------------
B---------------------------------------------------
G---------------10---12s10-9------------------------
D-------10--12--------------------------------------
A-10s12---------------------------------------------
E---------------------------------------------------


Espero les agrade y voten
Calificar esta versión:
Aviso: Este fichero es trabajo propio de su transcriptor y representa su interpretación personal de la canción. El material contenido en esta página es para exclusivo uso privado, por lo que se prohibe su reproducción o retransmisión, así como su uso para fines comerciales.
Más versiones de Algo Más, La 5a. Estación
Algo Mas
acordes
Algo Mas (ver 2)
acordes
Algo Más (ver 3)
acordes
Algo Mas (ver 4)
acordes
Algo Mas (ver 5)
acordes
Algo Más
tablatura
Algo Mas
bajo
Descubre más canciones de La 5a. Estación