Algo Mas, La 5a. Estacion (bajo)

Autor: Molotov | 27467 visualizaciones

esta bn solo escuchen bn

El primer verso lleva un leve bajeo
A veces creo que te miento, cuando te digo que te quiero?
G|-----------------------------------------------------|
D|-----------------------------------------------------|  x2
A|------------------------5---------------1---3--------|
E|----------1-------------------------3----------------|

   Pre-coro
   Es Algo Mas, Algo Que Me Llena, Algo Que No Mata Ni Envenena...
G|--------------------------------------|
D|--------------------------------------|
A|----1------3--5-------5--3--1-----3---|
E|-------------------------------3------|

   1er Coro:
Es algo m?s que la distancia, que el dolor y la nostalgia?
G|-------------------------------------------|
D|-------------------------------------------| x2
A|--------------5----5-5-----1--3------------|
E|----1----1-1------------3------------------|

G|-----------------------------------------------------|
D|-----------------------------------------------------|
A|------------------------5---------------1---3--------|
E|----------1-------------------------3----------------|

   3er Verso
   A veces Creo Que He Vivido, Mas De Mil A?os Contigo...
G|---------------------------------------------------------------|
D|---------------------------------------------------------------|
A|-------------5-5---5-5-5-----------1-1-1--3-3-3--3-3----3-3-3--|x2
E|-1--1-1-1------------------3-3-3-------------------------------|

Pre-coro
   Es Algo Mas, Algo Que Me Llena, Algo Que No Mata Ni Envenena...
G|----------------------------|
D|----------------------------|
A|--1----1-3-5--3--1-----3----|
E|--------------------3-------|

   2do Coro:
Es algo m?s que la distancia, que el dolor y la nostalgia?
G|---------------------------------------------------------------|
D|---------------------------------------------------------------|
A|---------------5-5---5-5-5-----------1-1-1--3-3-3--3-3--3-3-3--|x2
E|-1----1-1-1------------------3-3-3-----------------------------|

G|----------------------------|
D|----------------------------|
A|----------------5-5--5-5-5--|
E|--1----1-1-1----------------|

G|----------------------------|
D|----------------------------|
A|--------------1-1----3-3----|
E|--3-3--3-3-3----------------|

   3er verso.
   Y Yo Se Que No Es Querer, Por Que En Tus Ojos Yo Me Puedo Perder...
G|------------------------------|
D|------------------------------|
A|-11111111--33333333--55555555-|
E|------------------------------|

G|-------------------------|
D|-------------------------|
A|--11111111--3-5-55555555-|
E|-------------------------|

G|---------------------------------------------------|
D|---------------------------------------------------|
A|-44444444-33333333-22222222-11111111-33333333--3-3-|
E|---------------------------------------------------|

 Ultimo Coro:
Es algo m?s que la distancia, que el dolor y la nostalgia?
G|----------------------------------------------------------------------|
D|----------------------------------------------------------------------|
A|----------------5-5---5-5-5-----------1-1-1----3-3-3----3-3----3-3-3--|
E|--1----1-1-1------------------3-3-3-----------------------------------|

G|---------------------------------------------------|
D|---------------------------------------------------|
A|---------------5-5--5-5-5----------------1-1----3-3|
E|-1----1-1-1------------------3-3--3-3-3------------|

 Final
G|------------------------------|
D|------------------------------|
A|---------5-------1--3---------|
E|----1---------3----------1----|

Comentarios del colaborador: esta esta bn la fuente es de lacuerda.net

Calificar esta versión:
Aviso: Este fichero es trabajo propio de su transcriptor y representa su interpretación personal de la canción. El material contenido en esta página es para exclusivo uso privado, por lo que se prohibe su reproducción o retransmisión, así como su uso para fines comerciales.
Más versiones de Algo Mas, La 5a. Estacion
Algo Mas
acordes
Algo Mas (ver 2)
acordes
Algo Más (ver 3)
acordes
Algo Mas (ver 4)
acordes
Algo Mas (ver 5)
acordes
Algo Más
tablatura
Algo Mas
bajo
Descubre más canciones de La 5a. Estacion