El Ataud, La 25 (bajo)

Autor: Anónimo | 25700 visualizaciones

         x4
1-------------------|
2---------4-5-4-----|
3-----4-7-------7---|
4-9/5---------------|
Te escapaste...


1---------4-5-4-----|---------5-4-------|
2-----4-7-------7---|-----4-7-----7-4---|
3---5---------------|---5---------------|
4-------------------|-------------------|
me estavan...       pero bien al sur...

       x2
1-------------------|---------6-7-6-----|---------7-6-------|
2---------4-5-4-----|-----6-9-------9---|-----6-9-------9-6-|
3-----4-7-------7---|---7---------------|---7---------------|
4---5---------------|-------------------|-------------------|
                     me estaban          muertos y...
          x2                x4
1-------------------|1-------------------|
2---------4-5-4-----|2---------4-5-4-----|
3-----4-7-------7---|3-----4-7-------7---|
4---5---------------|4---5---------------|
                       Buen momento...

1---------4-5-4-----|---------5-4-------|
2-----4-7-------7---|-----4-7-----7-4---|
3---5---------------|---5---------------|
4-------------------|-------------------|
  ver mover...              para darmelo...

        x2
1-------------------|---------6-7-6-----|---------7-6-------|
2---------4-5-4-----|-----6-9-------9---|-----6-9-------9-6-|
3-----4-7-------7---|---7---------------|---7---------------|
4---5---------------|-------------------|-------------------|
                     me estavan        de parado...

         2x
1-------------------|---------4-5-4-----|---------5-4-------|
2---------4-5-4-----|-----4-7-------7---|-----4-7-----7-4---|
3-----4-7-------7---|---5---------------|---5---------------|
4---5---------------|-------------------|-------------------|
                       todos menos...
         2x
1-------------------|---------4-5-4-----|---------5-4-------|
2---------4-5-4-----|-----4-7-------7---|-----4-7-----7-4---|
3-----4-7-------7---|---5---------------|---5---------------|
4---5---------------|-------------------|-------------------|
                     vos cargaban...
        x2
1-------------------|---------6-7-6-----|---------7-6-------|
2---------4-5-4-----|-----6-9-------9---|-----6-9-------9-6-|
3-----4-7-------7---|---7---------------|---7---------------|
4---5---------------|-------------------|-------------------|
                     me estavan        de parado...

Punteo:
        x4
1-------------------|---------6-7-6-----|---------7-6-------|
2---------4-5-4-----|-----6-9-------9---|-----6-9-------9-6-|
3-----4-7-------7---|---7---------------|---7---------------|
4---5---------------|-------------------|-------------------|
        x2
1-------------------|---------6-7-6-----|---------7-6-------|
2---------4-5-4-----|-----6-9-------9---|-----6-9-------9-6-|
3-----4-7-------7---|---7---------------|---7---------------|
4---5---------------|-------------------|-------------------|
       x4
1-------------|-------------|
2-5/7-7-7-7-7-|9-7--10-9-7--|
3-------------|-------------|
4-------------|-------------|

1---------4-5-4-----|---------5-4-------|
2-----4-7-------7---|-----4-7-----7-4---|
3---5---------------|---5---------------|
4-------------------|-------------------|

        x2
1-------------------|---------6-7-6-----|---------7-6-------|
2---------4-5-4-----|-----6-9-------9---|-----6-9-------9-6-|
3-----4-7-------7---|---7---------------|---7---------------|
4---5---------------|-------------------|-------------------|

        4x
1-------------------|---------4-5-4-----|---------5-4-------|
2---------4-5-4-----|-----4-7-------7---|-----4-7-----7-4---|
3-----4-7-------7---|---5---------------|---5---------------|
4---5---------------|-------------------|-------------------|
 Saldremos...          rojo esta...
        x2
1-------------------|---------6-7-6-----|---------7-6-------|
2---------4-5-4-----|-----6-9-------9---|-----6-9-------9-6-|
3-----4-7-------7---|---7---------------|---7---------------|
4---5---------------|-------------------|-------------------|
   calor...        su fuegi...
       x2
1-------------------|
2---------4-5-4-----|
3-----4-7-------7---|
4---5---------------|
        x4
1-------------------|---------4-5-4-----|---------5-4-------|
2---------4-5-4-----|-----4-7-------7---|-----4-7-----7-4---|
3-----4-7-------7---|---5---------------|---5---------------|
4---5---------------|-------------------|-------------------|
 momento nena...       ver mover...
        x2
1-------------------|---------6-7-6-----|---------7-6-------|
2---------4-5-4-----|-----6-9-------9---|-----6-9-------9-6-|
3-----4-7-------7---|---7---------------|---7---------------|
4---5---------------|-------------------|-------------------|
               estavan velando...

         2x
1-------------------|---------4-5-4-----|---------5-4-------|
2---------4-5-4-----|-----4-7-------7---|-----4-7-----7-4---|
3-----4-7-------7---|---5---------------|---5---------------|
4---5---------------|-------------------|-------------------|
                       todos menos...

        2x
1-------------------|---------4-5-4-----|---------5-4-------|
2---------4-5-4-----|-----4-7-------7---|-----4-7-----7-4---|
3-----4-7-------7---|---5---------------|---5---------------|
4---5---------------|-------------------|-------------------|
                       vos cargaban...

el final va 3 veces:
        x2
1-------------------|---------6-7-6-----|---------7-6-------|
2---------4-5-4-----|-----6-9-------9---|-----6-9-------9-6-|
3-----4-7-------7---|---7---------------|---7---------------|
4---5---------------|-------------------|-------------------|
                      me estavan        de parado...

3-----4-5-6-7--5-6-7|
4---5---------------|


bueno che todo el aguente a...

         ..::La Chila::..
...oTrO sUeÑo Ke Se HiZo RoCaNrOl...**JUAN79**
Calificar esta versión:
Aviso: Este fichero es trabajo propio de su transcriptor y representa su interpretación personal de la canción. El material contenido en esta página es para exclusivo uso privado, por lo que se prohibe su reproducción o retransmisión, así como su uso para fines comerciales.
Más versiones de El Ataud, La 25
El Ataud
acordes
El Ataud
tablatura
El Ataud
bajo
Descubre más canciones de La 25