Dos Guitarras, La 25 (tablatura)

Autor: Anónimo | 25954 visualizaciones

DOS GUITARRAS

INTRO:
G* Bm G Bm
           G*        Bm
e |-----------------------|
B |-----------------------|
G |------6-8h10-6-6h8-6-5-|
D |-8h10------------------|
A |-----------------------|
E |-----------------------|

           G         Bm
e |-----------------------|
B |-----------------------|
G |------6-8h10-6-6h8-6-5-|
D |-8h10------------------|
A |-----------------------|
E |-----------------------|

            G*      Bm
e |---------------------|
B |---------------------|
G |-------6h9-5-5h7-5-4-|
D |-7h9-----------------|
A |---------------------|
E |---------------------|

   Bm      A5
e |--------------|
B |--------------|
G |----4h2-0-0/2-|
D |--------------|
A |--------------|
E |--------------|

D5 C5 B5
           G5 (Engancha con G* de la 1er estrofa)
e |-------|---|
B |-------|---|
G |-------|---|
D |-------|-5-|
A |-------|-5-|
E |-2-2/5-|-3-|

 G*              C C*                G*
Dos Guitarras y yo,   y un cuarto vacío

e |---------------|
B |-------3-------|
G |-0-2h4---4h2-0-|
D |---------------|
A |---------------|
E |---------------|

G*            Bm              C
   Afuera la noche muere en sueños

e |------------------------|
B |-9h11-12h10-8-7-7-7-7h8-|
G |------------------------|
D |------------------------|
A |------------------------|
E |------------------------|

G                 Bm           C*
   y el rock and roll de eso trata
          G*
de no perderlos

e |----------------------------|
B |-----3-------1------5---5/7-|
G |-2h4---4h2-0-0--4/6---6-----|
D |-2h4---4h2-0----------------|
A |----------------------------|
E |----------------------------|

         A*        B5 C5               G*
Voy a dejarme estar     y esperar por nada

e |-------------|
B |-1h3-3h1-0-1-|
G |-2h4-4h2-0~--|
D |-----------2-|
A |-------------|
E |-------------|

          D*        C*                G*
pero si hoy comiste   no te vas a morir
                                        G5
e |-----------------------------------|---|
B |-1h3-2-2---------------------------|---|
G |-2h4-----4h2-0-0/2-0---------------|---|
D |--------------------------0-2^/0---|-5-|
A |----------------------0/2--------2-|-5-|
E |-----------------------------------|-3-|

G5                C   C5                   G5
Al igual que yo rodé     muero seco en el verde

e |-----------------|
B |-0-1h3-3-3h1-0-1-|
G |-0-2h4---4h2-0-0-|
D |-----------------|
A |-----------------|
E |-----------------|

        B5           C5                G5
y vivo todavía en la misma esquina de siempre

e |-----------3-0-5h7-3~-|
B |-------3-5------------|
G |-0-3h5----------------|
D |----------------------|
A |----------------------|
E |----------------------|

             D5       B5 C5                 G5
mis sueños frustraran       esas miserias humanas

e |---------------|
B |-1-1h3-3-3h1-0-|
G |-0-2h4---4h2-0-|
D |---------------|
A |---------------|
E |---------------|

           D5      B5 C5                 G5
Por eso estoy aquí       sin esperar por nada

e |-----------------2~----------|
B |-1h3-3h1-0-1-2h4----4h2-0-5~-|
G |-2h4-4h2-0~------------------|
D |-----------2-----------------|
A |-----------------------------|
E |-----------------------------|

            D5      B5 C5               G5
Mi vida se lee así,       sigue desordenada

                   C5 D5 G5 sobre este punteo
e |-------------------|
B |-0/2-2-2-2/0-------|
G |-------------3-3h4-|
D |-------------------|
A |-------------------|
E |-------------------|

Dos guitarras y yo
                C5 D5 G5
Dos guitarras y yo
                C5 D5 G5 A5 (Dejar sonando)
Dos guitarras y yo

e |------------------------------|
B |----------------------------7-|
G |-----------------6------6h8---|
D |-----------4-6h8---8h6--------|
A |-----4-4-6--------------------|
E |-3/5--------------------------|

D5 C5 B5
       A5  G5
e |---|---|---|
B |---|---|---|
G |---|---|---|
D |---|-7-|-5-|
A |---|-7-|-5-|
E |-0-|-5-|-3-|

(Solo de Armónica)

G5 C5 C5 G5

e |---------------|
B |-------3-------|
G |-0-3h5---4h2-0-|
D |---------------|
A |---------------|
E |---------------|

B5 C5 C5 G5
B5 D5 C5 G5
A5 B5 C5 G5
D5 C5 G5

D5 C5 B5
       A5  G5
e |---|---|---|
B |---|---|---|
G |---|---|---|
D |---|-7-|-5-|
A |---|-7-|-5-|
E |-0-|-5-|-3-|

   G*              C   C*      G
e |---------------------------------|
B |-0/2-2-2-2/0---------------------|
G |-------------3-3h4-----2/4-2-2h4-|
D |---------------------0-----------|
A |---------------------------------|
E |---------------------------------|

G          Bm              C
Afuera la noche muere en sueños
G*                 D*           C*
   y el rock and roll de eso trata

e |----------------------------|
B |--------------------------7-|
G |----------------6-----6h8---|
D |----------4-6h8---8h6-------|
A |----------------------------|
E |----------------------------|
              G
de no perderlos

                     ----------FIN----------

Notas:
   G*   Bm     G    A5    D5    C5
 |-3-| |-2-| |-3-| |---| |---| |---|
 |-3-| |-3-| |-0-| |---| |---| |---|
 |-4-| |-4-| |-0-| |---| |-7-| |-5-|
 |-5-| |-4-| |-0-| |-7-| |-5-| |-5-|
 |-5-| |-2-| |-2-| |-7-| |-5-| |-3-|
 |-3-| |-2-| |-3-| |-5-| |---| |---|

   B5   G5     C    C*    A*    D*
 |---| |---| |-0-| |-3-| |-5-| |-5-|
 |---| |---| |-1-| |-5-| |-5-| |-7-|
 |-4-| |---| |-0-| |-5-| |-6-| |-7-|
 |-4-| |-5-| |-2-| |-5-| |-7-| |-7-|
 |-2-| |-5-| |-3-| |-3-| |-7-| |-5-|
 |---| |-3-| |---| |---| |-5-| |---|

ah...y los punteos o arreglos que
estan en el medio de las frases o
estrofas son opcionales...
quedan mejor nomas, que se yo
igual conviene hacerlos con otra
guitarra aparte.
Calificar esta versión:
Aviso: Este fichero es trabajo propio de su transcriptor y representa su interpretación personal de la canción. El material contenido en esta página es para exclusivo uso privado, por lo que se prohibe su reproducción o retransmisión, así como su uso para fines comerciales.
Más versiones de Dos Guitarras, La 25
Dos Guitarras
acordes
Dos Guitarras
tablatura
Dos Guitarras
armonica
Descubre más canciones de La 25