Desde El Cielo, La 25 (tablatura)

Autor: Anónimo | 44890 visualizaciones

INTRO:

 Riff 1
E|---------------------------------------------------/
B|--5-5-5------------------------------7--5----------/
G|--5-5-5------------------------------7--5----------/
D|----------7--5----5-5--7--5--7-7-------------------/ x6
A|----------------7----------------------------------/
E|---------------------------------------------------/

   Riff 2
E|--------------/
B|--5-5-5-------/
G|--5-5-5-------/
D|----------7---/
A|--------------/
E|--------------/




Riff 2 A TODOS USTEDES Riff 1 QUE VELAN POR MI Riff 1 LES DIGO HASTA LUEGO Riff 1 NOS VEMOS ALLA Riff 1 CAMINARE Riff 1 FLOTANDO SOBRE ESTA GENTE Riff 1 Y CUANDO SE VALLAN Riff 1 QUIEN SE HARA CARGO DE MI DO RE TODA MI FE LA (riff 1) MUERTA YA DO RE CAEN LAS VELAS LA (riff 1) SOBRE MI TUMBA DO RE TODO MI ROCK LA LLEVO EN MI MUERTE MI MIb RE LA Y ASI PUEDO VERME DESDE EL CIELO Intro: x6 Riff 2 TE ACERCAS ME DICES Riff 1 NO SE QUE AL OIDO Riff 1 TE DIGO QUE SI Riff 1 PERO NADA ENTENDI Riff 1 DESALMADO Riff 1 EN UN COSTADO QUEDE Riff 1 DE MALA VIDA Riff 1 ME TENES DO RE EN MI CEREMONIA LA (riff 1) QUEDA UN DESEO DO RE REZAR POR MI LA (riff 1) Y PEDIR AL CIELO DO RE TODO MI ROCK LA HASTA LA MUERTE MI MIb RE LA Y ASI PUEDO VERME DESDE EL CIELO Termina con un solo que hace 1ro los acordes del verso y 2do los acordes del estribillo y finaliza con la intro. hace unos arreglos cuando hace LA en el estribillo que nose muy bien como son, usa una parte de la intro y hace algo mas cualquier duda matdanubio@hotmail.com
Calificar esta versión:
Aviso: Este fichero es trabajo propio de su transcriptor y representa su interpretación personal de la canción. El material contenido en esta página es para exclusivo uso privado, por lo que se prohibe su reproducción o retransmisión, así como su uso para fines comerciales.
Más versiones de Desde El Cielo, La 25
Desde El Cielo
acordes
Desde El Cielo
tablatura
Descubre más canciones de La 25