Chico Común, La 25 (bajo)

Autor: Anónimo | 37990 visualizaciones

 Intro: el bajo toca 2 veces Re,uno en cada golpe despues
 de que suena el redoblante...
 cuando empieza a cantar,el bajo hace las mismas notas
 que la guitarra ritmica:

g|-------------------------------------------------|
d|-------------------------------------------------|
a|--5(varias veces hasta que cambia)---------------|x2
e|----------------------------------5(varias veces)|

g|--------------------------------------------------------|
d|--------------------------------------------------------|
a|-----------------5(varias veces)----------------------5-|
e|--3(varias veces)----------------5(varias)-3(varias)----|

g|------------------|
d|--12(varias veces)|
a|------------------|
e|------------------|

 *estos riff entran cuando dice: aca estoy,esto soy...

 R1:
g|-----------------|  |---------------------------------|
d|----------2-2-4-4|  |---------------------------------|
a|--0-0-4-4--------|x2|----------------------4-4-5-5-7-7|
e|-----------------|  |--5-5-3-3-2-2-3-3-5-5 -----------|

 *Todo el R1 se repite 2 veces, y se lo va tocando
  de acuerdo a la velocidad del tema...

 R2:
g|------------------------------------------
d|-----------------------------------2-2-4-4
a|-----------------4-5-7----0-0-4-4---------
e|--5--3--2--3--5---------------------------

 sigue asi:
g|--------------|
d|--------------|
a|--4^12-10-9---|
e|------------12|

 R3:
g|-----------------------------
d|---------2-2-4-4-------------
a|-0-0-2-2---------------------
e|-----------------5--3--2--3--

g|----------------------------|
d|---------2-2-4-4------------|
a|-0-0-2-2--------------------|
e|-----------------5--3--2--0-|

 Estribillo:

g|-----------------------------------------------------|
d|---------------------------------2-2-4-4-------------|
a|---2--5--7----2--5--7--0-0--4-4----------------------|
e|-3----------3----------------------------5--3--2---0-|

g|-----------------------------------------------------|
d|---------------------------------2-2-4-4-------------|
a|---2--5--7----2--5--7--0-0--4-4-----------12-10-9----|
e|-3----------3-------------------------------------12-|

 *como recuerdo de vos...se hace con esto:

g|---------------------------------------------------|
d|--------------------------------2-2-4-4------------|
a|---------------4--5--7--0-0-4-4---------12-10-9----|
e|-5--3--2--3--5----------------------------------12-|

 *como olvidarla nooo, si su recuerdo...

g|---------------------------------------------------|
d|-------------------------------2-2-4-4-------------|
a|---4--7--9-------------0-0-4-4----------12-10-9----|
e|-5----------5--3--2--3--------------------------12-|


 Bueno todo el tema se hace con estos riff,el final tambien,
 los que no puedan seguir sacando el tema manden un mail a
 larenga_1388@hotmail.com y les paso lo que sigue...
 espero que esto les sirva!!!
Calificar esta versión:
Aviso: Este fichero es trabajo propio de su transcriptor y representa su interpretación personal de la canción. El material contenido en esta página es para exclusivo uso privado, por lo que se prohibe su reproducción o retransmisión, así como su uso para fines comerciales.
Más versiones de Chico Común, La 25
Chico Comun
acordes
Chico Comun (ver 2)
acordes
Chico Comun
tablatura
Chico Comun (ver 2)
tablatura
Chico Común
bajo
Descubre más canciones de La 25