Chica Del 2000, La 25 (tablatura)

Autor: Gardelito 25 | 34576 visualizaciones

Punteo

e|------------------------------------------------------------
B|------------------------------------------------------------
G|-7h9-10–12-p-10-10-10-7---10-7------------------------------
D|---------------------------------11-------------------------
A|------------------------------------------------------------
E|------------------------------------------------------------


e|--14--12---------------------------------------------------------------
B|-------------14--12-----------------------12/14--10/12--10--9--6—6h7-6-
G|----------------------4-----13-13/16-14--------------------------------
D|-----------------------------------------------------------------------
A|-----------------------------------------------------------------------
E|-----------------------------------------------------------------------
Calificar esta versión:
Aviso: Este fichero es trabajo propio de su transcriptor y representa su interpretación personal de la canción. El material contenido en esta página es para exclusivo uso privado, por lo que se prohibe su reproducción o retransmisión, así como su uso para fines comerciales.
Más versiones de Chica Del 2000, La 25
Chica Del 2000
acordes
Chica Del 2000
tablatura
Descubre más canciones de La 25