Did My Time, Korn (tablatura) (ver 2)

Autor: jcaf4 | 45491 visualizaciones

Intro:1
d|---------------------------|
A|---------------------------|
F|---------------------------|
C|---------------------------|
G|--5/777-5/777-5/777-5/777--|
C|---------------------------|4x Rápido

Intro:2
d|---------------------------------------|
A|---------------------------------------|
F|---------------------------------------|
C|--2/333-2/333-2/333-2/333--------------|
G|--2/333-2/333-2/333-2/333--------------|
C|--2/333-2/333-2/333-2/333--------------|

 Intro:1 - 1X
 Intro:2 - 1X
 Intro:1 - 1X
 Intro:2 - 1X 
 Intro:1 - 1X
 Intro:2 - 1X(com baixo)
 
 Chorus A
d|-------------------------------------------------------------|
A|-------------------------------------------------------------|
F|-------------------------------------------------------------|
C|-------------------------------------------------------------|
G|---777-------------------------------------------------------|
c|-------999--555-000-444--------------------------------------|

 Chorus B
d|----------------------------------------------------|
A|----------------------------------------------------|
F|--999-----------------------------------------------|
C|--xxx-999--555--000--444----------------------------|
G|--777-999--555--000--444----------------------------|
C|------999--555--000--444----------------------------|

Chorus A - 1X
Chorus B - 8X

 Verse
d|----------------------------------------------|
A|----------------------------------------------|
F|----------------------------------------------|
C|--222-222-222-222-333-333-333-333-------------|
G|--222-222-222-222-333-333-333-333-------------|
C|--222-222-222-222-333-333-333-333-------------| 4X

 Chorus A - 1X
 Chorus B - 8X
 Verse
 Chorus A - 1X
 Chorus B - 8X

 Bridge I
d|-----------------------------------|
A|-----------------------------------|
F|-----------------------------------|
C|--2--3-2--3--3-2-------------------|
G|--2-------3------3-----------------|
C|--2-------3------------------------| 5X

 Bridge II
d|---------------------------------|
A|---------------------------------|
F|--------------5------------------|
C|-0-2/0--00-0--5-0----------------|
G|-0-2/0--00-0--3-0----------------|
C|-0-2/0--00-0----0----------------| 2X

 Riff I
e|---------------------------------------------------------|
B|---------------------------------------------------------|
G|---------------------------------------------------------|
D|--000-000-000-000-111-111-111-111------------------------|
A|--000-000-000-000-111-111-111-111------------------------|
D|--000-000-000-000-111-111-111-111------------------------| 2X
Calificar esta versión:
Aviso: Este fichero es trabajo propio de su transcriptor y representa su interpretación personal de la canción. El material contenido en esta página es para exclusivo uso privado, por lo que se prohibe su reproducción o retransmisión, así como su uso para fines comerciales.
Más versiones de Did My Time, Korn
Did My Time
tablatura
Did My Time (ver 2)
tablatura
Descubre más canciones de Korn