Did My Time, Korn (tablatura)

Autor: desales | 25508 visualizaciones

Subida por Desales

KORN - DID MY TIME


Guitarra 1_ x 9
d|---------------------------| 
A|---------------------------|
F|---------------------------|
C|---------------------------|
G|--5/777-5/777-5/777-5/777--|
C|---------------------------|
 |---------------------------|

Guitarra 1_ x 9
d|------------------------------| 
A|------------------------------|
F|------------------------------|
C|--2-2-2-----------------------|
G|--------2-2-2-----------------|
C|-------------3-3-3-------2-2-2|
 |-------------------3-3-3------|

Guitarra 1&2_ X 4
d|------------------------------------------------| 
A|------------------------------------------------|
F|------------------------------------------------|
C|------------------------------------------------|
G|------------------------------------------------|
C|------------------------------------------------|
 |-3/5-5-3/5-5-3/5-5-3/5-5-3/6-6-3/6-6-3/6-6-3/6-6|

Guitarra 1_ x 9 
d|------------------------------| 
A|------------------------------|
F|------------------------------|
C|--2-2-2-----------------------|
G|--------2-2-2-----------------|
C|-------------3-3-3-------2-2-2|
 |-------------------3-3-3------|

Guitarra 1&2_ X 5
d|------------------------------------------------| 
A|------------------------------------------------|
F|------------------------------------------------|
C|------------------------------------------------|
G|------------------------------------------------|
C|------------------------------------------------|
 |-3/5-5-3/5-5-3/5-5-3/5-5-3/6-6-3/6-6-3/6-6-3/6-6|

Guitarra 1_ x 9 
d|------------------------------| 
A|------------------------------|
F|------------------------------|
C|--2-2-2-----------------------|
G|--------2-2-2-----------------|
C|-------------3-3-3-------2-2-2|
 |-------------------3-3-3------|

Guitarra 1_ x 4 
d|------------------------------------------------|             A|------------------------------------------------|
F|-----------------------------------------5------|            C|-------3-2--------3-2------3-2------3-2---------|
G|----------------------3-------------------------|
C|------------------------------------------------|           _|-3-----------3-------------3-------3------------|

Guitarra 1&2_ X 8
d|------------------------------------------------| 
A|------------------------------------------------|
F|------------------------------------------------|
C|------------------------------------------------|
G|-5---5-6-5-5--5-5-6-5-3-------------------------|
C|-5---5-6-5-5--5-5-6-5-3-------------------------|
_|-3---3-4-3-3--3-3-4-3-1-------------------------|




Guitarra 1&2_ X 2
d|------------------------------------------------| 
A|------------------------------------------------|
F|------------------------------------------------|
C|------------------------------------------------|
G|------------------------------------------------|
C|------------------------------------------------|
 |-1/3-3-1/3-3-1/3-3-1/3-3-1/4-4-1/4-4-1/4-4-1/4-4|

Guitarra 1_ x 8
d|------------------------------| 
A|------------------------------|
F|------------------------------|
C|--2-2-2-----------------------|
G|--------2-2-2-----------------|
C|-------------3-3-3-------2-2-2|
 |-------------------3-3-3------|

Guitarra 1&2_ X 2
d|------------------------------------------------| 
A|------------------------------------------------|
F|------------------------------------------------|
C|------------------------------------------------|
G|------------------------------------------------|
C|------------------------------------------------|
 |-3/5-5-3/5-5-3/5-5-3/5-5-3/6-6-3/6-6-3/6-6-3/6-6|

Comentarios del colaborador: Rocanrolenen a todo volumen chicos ATTE Desales

Calificar esta versión:
Aviso: Este fichero es trabajo propio de su transcriptor y representa su interpretación personal de la canción. El material contenido en esta página es para exclusivo uso privado, por lo que se prohibe su reproducción o retransmisión, así como su uso para fines comerciales.
Más versiones de Did My Time, Korn
Did My Time
tablatura
Did My Time (ver 2)
tablatura
Descubre más canciones de Korn